  0
SECTION
  2
HEADER
  9
$ACADVER
  1
AC1014
  9
$HANDSEED
  5
FFFF
  9
$INSUNITS
 70
     4
  9
$MEASUREMENT
 70
     1
  0
ENDSEC
  0
SECTION
  2
TABLES
  0
TABLE
  2
VPORT
  5
8
330
0
100
AcDbSymbolTable
 70
     4
  0
VPORT
  5
2E
330
8
100
AcDbSymbolTableRecord
100
AcDbViewportTableRecord
  2
*ACTIVE
 70
     0
 10
0.0
 20
0.0
 11
1.0
 21
1.0
 12
210.0
 22
148.5
 13
0.0
 23
0.0
 14
10.0
 24
10.0
 15
10.0
 25
10.0
 16
0.0
 26
0.0
 36
1.0
 17
0.0
 27
0.0
 37
0.0
 40
341.0
 41
1.24
 42
50.0
 43
0.0
 44
0.0
 50
0.0
 51
0.0
 71
     0
 72
   100
 73
     1
 74
     3
 75
     0
 76
     0
 77
     0
 78
     0
  0
ENDTAB
  0
TABLE
  2
LTYPE
  5
5
330
0
100
AcDbSymbolTable
 70
     1
  0
LTYPE
  5
14
330
5
100
AcDbSymbolTableRecord
100
AcDbLinetypeTableRecord
  2
BYBLOCK
 70
     0
  3

 72
    65
 73
     0
 40
0.0
  0
LTYPE
  5
15
330
5
100
AcDbSymbolTableRecord
100
AcDbLinetypeTableRecord
  2
BYLAYER
 70
     0
  3

 72
    65
 73
     0
 40
0.0
  0
LTYPE
  5
16
330
5
100
AcDbSymbolTableRecord
100
AcDbLinetypeTableRecord
  2
CONTINUOUS
 70
     0
  3
Solid line
 72
    65
 73
     0
 40
0.0
  0
ENDTAB
  0
TABLE
  2
LAYER
  5
2
100
AcDbSymbolTable
 70
4
  0
LAYER
  5
50
100
AcDbSymbolTableRecord
100
AcDbLayerTableRecord
  2
0
 70
0
  6
CONTINUOUS
  0
LAYER
  5
51
100
AcDbSymbolTableRecord
100
AcDbLayerTableRecord
  2
Calque_1
 70
0
  6
CONTINUOUS
  0
LAYER
  5
52
100
AcDbSymbolTableRecord
100
AcDbLayerTableRecord
  2
reperes
 70
0
  6
CONTINUOUS
  0
LAYER
  5
53
100
AcDbSymbolTableRecord
100
AcDbLayerTableRecord
  2
Calque_2
 70
0
  6
CONTINUOUS
  0
ENDTAB
  0
TABLE
  2
STYLE
  5
3
330
0
100
AcDbSymbolTable
 70
     1
  0
STYLE
  5
11
330
3
100
AcDbSymbolTableRecord
100
AcDbTextStyleTableRecord
  2
STANDARD
 70
     0
 40
0.0
 41
1.0
 50
0.0
 71
     0
 42
2.5
  3
txt
  4

  0
ENDTAB
  0
TABLE
  2
VIEW
  5
6
330
0
100
AcDbSymbolTable
 70
     0
  0
ENDTAB
  0
TABLE
  2
UCS
  5
7
330
0
100
AcDbSymbolTable
 70
     0
  0
ENDTAB
  0
TABLE
  2
APPID
  5
9
330
0
100
AcDbSymbolTable
 70
     2
  0
APPID
  5
12
330
9
100
AcDbSymbolTableRecord
100
AcDbRegAppTableRecord
  2
ACAD
 70
     0
  0
ENDTAB
  0
TABLE
  2
DIMSTYLE
  5
A
330
0
100
AcDbSymbolTable
 70
     1
  0
DIMSTYLE
105
27
330
A
100
AcDbSymbolTableRecord
100
AcDbDimStyleTableRecord
  2
ISO-25
 70
     0
  3

  4

  5

  6

  7

 40
1.0
 41
2.5
 42
0.625
 43
3.75
 44
1.25
 45
0.0
 46
0.0
 47
0.0
 48
0.0
140
2.5
141
2.5
142
0.0
143
0.03937007874016
144
1.0
145
0.0
146
1.0
147
0.625
 71
     0
 72
     0
 73
     0
 74
     0
 75
     0
 76
     0
 77
     1
 78
     8
170
     0
171
     3
172
     1
173
     0
174
     0
175
     0
176
     0
177
     0
178
     0
270
     2
271
     2
272
     2
273
     2
274
     3
340
11
275
     0
280
     0
281
     0
282
     0
283
     0
284
     8
285
     0
286
     0
287
     3
288
     0
  0
ENDTAB
  0
TABLE
  2
BLOCK_RECORD
  5
1
330
0
100
AcDbSymbolTable
 70
     1
  0
BLOCK_RECORD
  5
1F
330
1
100
AcDbSymbolTableRecord
100
AcDbBlockTableRecord
  2
*MODEL_SPACE
  0
BLOCK_RECORD
  5
1B
330
1
100
AcDbSymbolTableRecord
100
AcDbBlockTableRecord
  2
*PAPER_SPACE
  0
ENDTAB
  0
ENDSEC
  0
SECTION
  2
BLOCKS
  0
BLOCK
  5
20
330
1F
100
AcDbEntity
  8
0
100
AcDbBlockBegin
  2
*MODEL_SPACE
 70
     0
 10
0.0
 20
0.0
 30
0.0
  3
*MODEL_SPACE
  1

  0
ENDBLK
  5
21
330
1F
100
AcDbEntity
  8
0
100
AcDbBlockEnd
  0
BLOCK
  5
1C
330
1B
100
AcDbEntity
 67
     1
  8
0
100
AcDbBlockBegin
  2
*PAPER_SPACE
  1

  0
ENDBLK
  5
1D
330
1B
100
AcDbEntity
 67
     1
  8
0
100
AcDbBlockEnd
  0
ENDSEC
  0
SECTION
  2
ENTITIES
  0
LINE
  5
100
100
AcDbEntity
  8
Calque_1
 62
7
100
AcDbLine
 10
130.529170
 20
258.886560
 30
0.0
 11
130.529170
 21
258.886560
 31
0.0
  0
LINE
  5
101
100
AcDbEntity
  8
Calque_1
 62
7
100
AcDbLine
 10
250.950420
 20
131.670240
 30
0.0
 11
250.950420
 21
127.570224
 31
0.0
  0
LINE
  5
102
100
AcDbEntity
  8
Calque_1
 62
7
100
AcDbLine
 10
250.950420
 20
127.570224
 30
0.0
 11
128.321250
 21
127.570224
 31
0.0
  0
LINE
  5
103
100
AcDbEntity
  8
Calque_1
 62
7
100
AcDbLine
 10
128.321250
 20
127.570224
 30
0.0
 11
128.321250
 21
131.670240
 31
0.0
  0
LINE
  5
104
100
AcDbEntity
  8
Calque_1
 62
7
100
AcDbLine
 10
128.321250
 20
131.670240
 30
0.0
 11
250.950420
 21
131.670240
 31
0.0
  0
LINE
  5
105
100
AcDbEntity
  8
Calque_1
 62
7
100
AcDbLine
 10
128.479170
 20
249.994890
 30
0.0
 11
132.579186
 21
249.994890
 31
0.0
  0
LINE
  5
106
100
AcDbEntity
  8
Calque_1
 62
7
100
AcDbLine
 10
132.579186
 20
249.994890
 30
0.0
 11
132.579186
 21
127.365720
 31
0.0
  0
LINE
  5
107
100
AcDbEntity
  8
Calque_1
 62
7
100
AcDbLine
 10
132.579186
 20
127.365720
 30
0.0
 11
128.479170
 21
127.365720
 31
0.0
  0
LINE
  5
108
100
AcDbEntity
  8
Calque_1
 62
7
100
AcDbLine
 10
128.479170
 20
127.365720
 30
0.0
 11
128.479170
 21
249.994890
 31
0.0
  0
LINE
  5
109
100
AcDbEntity
  8
Calque_1
 62
7
100
AcDbLine
 10
10.154519
 20
127.523640
 30
0.0
 11
10.154519
 21
131.623656
 31
0.0
  0
LINE
  5
10a
100
AcDbEntity
  8
Calque_1
 62
7
100
AcDbLine
 10
10.154519
 20
131.623656
 30
0.0
 11
132.783689
 21
131.623656
 31
0.0
  0
LINE
  5
10b
100
AcDbEntity
  8
Calque_1
 62
7
100
AcDbLine
 10
132.783689
 20
131.623656
 30
0.0
 11
132.783689
 21
127.523640
 31
0.0
  0
LINE
  5
10c
100
AcDbEntity
  8
Calque_1
 62
7
100
AcDbLine
 10
132.783689
 20
127.523640
 30
0.0
 11
10.154519
 21
127.523640
 31
0.0
  0
LINE
  5
10d
100
AcDbEntity
  8
Calque_1
 62
7
100
AcDbLine
 10
132.625780
 20
9.198990
 30
0.0
 11
128.525764
 21
9.198990
 31
0.0
  0
LINE
  5
10e
100
AcDbEntity
  8
Calque_1
 62
7
100
AcDbLine
 10
128.525764
 20
9.198990
 30
0.0
 11
128.525764
 21
131.828160
 31
0.0
  0
LINE
  5
10f
100
AcDbEntity
  8
Calque_1
 62
7
100
AcDbLine
 10
128.525764
 20
131.828160
 30
0.0
 11
132.625780
 21
131.828160
 31
0.0
  0
LINE
  5
110
100
AcDbEntity
  8
Calque_1
 62
7
100
AcDbLine
 10
132.625780
 20
131.828160
 30
0.0
 11
132.625780
 21
9.198990
 31
0.0
  0
LINE
  5
111
100
AcDbEntity
  8
Calque_1
 62
7
100
AcDbLine
 10
217.152735
 20
45.928770
 30
0.0
 11
214.253586
 21
43.029621
 31
0.0
  0
LINE
  5
112
100
AcDbEntity
  8
Calque_1
 62
7
100
AcDbLine
 10
214.253586
 20
43.029621
 30
0.0
 11
127.541669
 21
129.741539
 31
0.0
  0
LINE
  5
113
100
AcDbEntity
  8
Calque_1
 62
7
100
AcDbLine
 10
127.541669
 20
129.741539
 30
0.0
 11
130.440818
 21
132.640688
 31
0.0
  0
LINE
  5
114
100
AcDbEntity
  8
Calque_1
 62
7
100
AcDbLine
 10
130.440818
 20
132.640688
 30
0.0
 11
217.152735
 21
45.928770
 31
0.0
  0
LINE
  5
115
100
AcDbEntity
  8
Calque_1
 62
7
100
AcDbLine
 10
214.220637
 20
216.197189
 30
0.0
 11
217.119786
 21
213.298040
 31
0.0
  0
LINE
  5
116
100
AcDbEntity
  8
Calque_1
 62
7
100
AcDbLine
 10
217.119786
 20
213.298040
 30
0.0
 11
130.407868
 21
126.586122
 31
0.0
  0
LINE
  5
117
100
AcDbEntity
  8
Calque_1
 62
7
100
AcDbLine
 10
130.407868
 20
126.586122
 30
0.0
 11
127.508719
 21
129.485271
 31
0.0
  0
LINE
  5
118
100
AcDbEntity
  8
Calque_1
 62
7
100
AcDbLine
 10
127.508719
 20
129.485271
 30
0.0
 11
214.220637
 21
216.197189
 31
0.0
  0
LINE
  5
119
100
AcDbEntity
  8
Calque_1
 62
7
100
AcDbLine
 10
43.952216
 20
213.265102
 30
0.0
 11
46.851365
 21
216.164251
 31
0.0
  0
LINE
  5
11a
100
AcDbEntity
  8
Calque_1
 62
7
100
AcDbLine
 10
46.851365
 20
216.164251
 30
0.0
 11
133.563282
 21
129.452333
 31
0.0
  0
LINE
  5
11b
100
AcDbEntity
  8
Calque_1
 62
7
100
AcDbLine
 10
133.563282
 20
129.452333
 30
0.0
 11
130.664133
 21
126.553184
 31
0.0
  0
LINE
  5
11c
100
AcDbEntity
  8
Calque_1
 62
7
100
AcDbLine
 10
130.664133
 20
126.553184
 30
0.0
 11
43.952216
 21
213.265102
 31
0.0
  0
LINE
  5
11d
100
AcDbEntity
  8
Calque_1
 62
7
100
AcDbLine
 10
46.884319
 20
42.996679
 30
0.0
 11
43.985170
 21
45.895828
 31
0.0
  0
LINE
  5
11e
100
AcDbEntity
  8
Calque_1
 62
7
100
AcDbLine
 10
43.985170
 20
45.895828
 30
0.0
 11
130.697088
 21
132.607745
 31
0.0
  0
LINE
  5
11f
100
AcDbEntity
  8
Calque_1
 62
7
100
AcDbLine
 10
130.697088
 20
132.607745
 30
0.0
 11
133.596237
 21
129.708596
 31
0.0
  0
LINE
  5
120
100
AcDbEntity
  8
Calque_1
 62
7
100
AcDbLine
 10
133.596237
 20
129.708596
 30
0.0
 11
46.884319
 21
42.996679
 31
0.0
  0
SPLINE
  5
121
100
AcDbEntity
  8
Calque_1
 62
7
100
AcDbSpline
 70
0
 71
3
 72
25
 73
21
 74
19
 40
0.000000
 40
0.000000
 40
0.000000
 40
0.000000
 40
50.819557
 40
100.734155
 40
151.553711
 40
202.373268
 40
252.287866
 40
303.107422
 40
353.926979
 40
403.841577
 40
454.661134
 40
505.480690
 40
555.395288
 40
606.214845
 40
640.107056
 40
673.718797
 40
707.611008
 40
741.503219
 40
775.114960
 40
809.007171
 40
809.007171
 40
809.007171
 40
809.007171
 10
130.529170
 20
258.886560
 30
0.0
 10
113.479940
 20
256.919233
 30
0.0
 10
79.685081
 20
253.019611
 30
0.0
 10
36.618589
 20
223.105067
 30
0.0
 10
7.761818
 20
180.333259
 30
0.0
 10
-2.295792
 20
129.383161
 30
0.0
 10
7.809036
 20
78.604662
 30
0.0
 10
36.567099
 20
35.452427
 30
0.0
 10
79.713461
 20
6.695840
 30
0.0
 10
130.513727
 20
-3.409007
 30
0.0
 10
181.381447
 20
6.647204
 30
0.0
 10
224.460064
 20
35.509578
 30
0.0
 10
253.242675
 20
78.555294
 30
0.0
 10
262.258501
 20
123.790349
 30
0.0
 10
257.017464
 20
163.305850
 30
0.0
 10
243.941047
 20
194.885500
 30
0.0
 10
223.136266
 20
222.051306
 30
0.0
 10
196.004622
 20
242.719838
 30
0.0
 10
164.424714
 20
256.304414
 30
0.0
 10
141.858937
 20
258.023464
 30
0.0
 10
130.529170
 20
258.886560
 30
0.0
 11
130.529170
 21
258.886560
 31
0.0
 11
80.697201
 21
248.916493
 31
0.0
 11
39.194730
 21
221.185428
 31
0.0
 11
10.913720
 21
178.962072
 31
0.0
 11
1.054992
 21
129.107956
 31
0.0
 11
10.792847
 21
80.152453
 31
0.0
 11
38.979468
 21
37.866028
 31
0.0
 11
81.265893
 21
9.679407
 31
0.0
 11
130.221396
 21
-0.058448
 31
0.0
 11
180.075512
 21
9.800280
 31
0.0
 11
222.298868
 21
38.081290
 31
0.0
 11
250.029933
 21
79.583761
 31
0.0
 11
260.000000
 21
129.415730
 31
0.0
 11
255.564261
 21
163.016417
 31
0.0
 11
242.701605
 21
194.069617
 31
0.0
 11
222.078872
 21
220.965432
 31
0.0
 11
195.183057
 21
241.588165
 31
0.0
 11
164.129857
 21
254.450821
 31
0.0
 11
130.529170
 21
258.886560
 31
0.0
  0
LINE
  5
122
100
AcDbEntity
  8
Calque_2
 62
7
100
AcDbLine
 10
129.282866
 20
128.294392
 30
0.0
 11
129.282866
 21
128.294392
 31
0.0
  0
LINE
  5
123
100
AcDbEntity
  8
Calque_2
 62
7
100
AcDbLine
 10
130.463389
 20
166.578743
 30
0.0
 11
130.554963
 21
166.578743
 31
0.0
  0
SPLINE
  5
124
100
AcDbEntity
  8
Calque_2
 62
7
100
AcDbSpline
 70
0
 71
3
 72
25
 73
21
 74
19
 40
0.000000
 40
0.000000
 40
0.000000
 40
0.000000
 40
0.785035
 40
1.556090
 40
2.341125
 40
3.126160
 40
3.897216
 40
4.682250
 40
5.467285
 40
6.238341
 40
7.023376
 40
7.808410
 40
8.579466
 40
9.364501
 40
9.888051
 40
10.407268
 40
10.930818
 40
11.454367
 40
11.973584
 40
12.497134
 40
12.497134
 40
12.497134
 40
12.497134
 10
129.282866
 20
128.294392
 30
0.0
 10
129.490585
 20
128.129652
 30
0.0
 10
129.902323
 20
127.803106
 30
0.0
 10
130.699497
 20
127.659446
 30
0.0
 10
131.481898
 20
127.811441
 30
0.0
 10
132.148287
 20
128.258111
 30
0.0
 10
132.592566
 20
128.923141
 30
0.0
 10
132.749794
 20
129.708619
 30
0.0
 10
132.592614
 20
130.494017
 30
0.0
 10
132.148097
 20
131.159285
 30
0.0
 10
131.482623
 20
131.605071
 30
0.0
 10
130.696810
 20
131.760355
 30
0.0
 10
129.912227
 20
131.604559
 30
0.0
 10
129.319643
 20
131.208935
 30
0.0
 10
128.945262
 20
130.720058
 30
0.0
 10
128.743151
 20
130.232279
 30
0.0
 10
128.673669
 20
129.708295
 30
0.0
 10
128.744266
 20
129.186172
 30
0.0
 10
128.940829
 20
128.692839
 30
0.0
 10
129.168539
 20
128.427575
 30
0.0
 10
129.282866
 20
128.294392
 30
0.0
 11
129.282866
 21
128.294392
 31
0.0
 11
129.936086
 21
127.858979
 31
0.0
 11
130.692326
 21
127.708554
 31
0.0
 11
131.462447
 21
127.860847
 31
0.0
 11
132.114692
 21
128.297717
 31
0.0
 11
132.543067
 21
128.938827
 31
0.0
 11
132.697080
 21
129.708606
 31
0.0
 11
132.543067
 21
130.478385
 31
0.0
 11
132.114692
 21
131.119494
 31
0.0
 11
131.462447
 21
131.556365
 31
0.0
 11
130.692326
 21
131.708657
 31
0.0
 11
129.936086
 21
131.558232
 31
0.0
 11
129.282866
 21
131.122819
 31
0.0
 11
128.964297
 21
130.707346
 31
0.0
 11
128.765601
 21
130.227652
 31
0.0
 11
128.697080
 21
129.708606
 31
0.0
 11
128.765601
 21
129.189559
 31
0.0
 11
128.964297
 21
128.709865
 31
0.0
 11
129.282866
 21
128.294392
 31
0.0
  0
LINE
  5
125
100
AcDbEntity
  8
Calque_2
 62
7
100
AcDbLine
 10
131.534842
 20
165.598864
 30
0.0
 11
131.534842
 21
161.539918
 31
0.0
  0
SPLINE
  5
126
100
AcDbEntity
  8
Calque_2
 62
7
100
AcDbSpline
 70
0
 71
3
 72
13
 73
9
 74
7
 40
0.000000
 40
0.000000
 40
0.000000
 40
0.000000
 40
0.256508
 40
0.510893
 40
0.767400
 40
1.023908
 40
1.278293
 40
1.534801
 40
1.534801
 40
1.534801
 40
1.534801
 10
130.554963
 20
166.578743
 30
0.0
 10
130.640715
 20
166.572211
 30
0.0
 10
130.811511
 20
166.559201
 30
0.0
 10
131.050445
 20
166.456387
 30
0.0
 10
131.256064
 20
166.299965
 30
0.0
 10
131.412486
 20
166.094346
 30
0.0
 10
131.515300
 20
165.855412
 30
0.0
 10
131.528310
 20
165.684616
 30
0.0
 10
131.534842
 20
165.598864
 30
0.0
 11
130.554963
 21
166.578743
 31
0.0
 11
130.809264
 21
166.545172
 31
0.0
 11
131.044285
 21
166.447823
 31
0.0
 11
131.247842
 21
166.291743
 31
0.0
 11
131.403922
 21
166.088186
 31
0.0
 11
131.501271
 21
165.853165
 31
0.0
 11
131.534842
 21
165.598864
 31
0.0
  0
LINE
  5
127
100
AcDbEntity
  8
Calque_2
 62
7
100
AcDbLine
 10
130.554963
 20
160.560039
 30
0.0
 11
130.463389
 21
160.560039
 31
0.0
  0
SPLINE
  5
128
100
AcDbEntity
  8
Calque_2
 62
7
100
AcDbSpline
 70
0
 71
3
 72
13
 73
9
 74
7
 40
0.000000
 40
0.000000
 40
0.000000
 40
0.000000
 40
0.256508
 40
0.510893
 40
0.767400
 40
1.023908
 40
1.278293
 40
1.534801
 40
1.534801
 40
1.534801
 40
1.534801
 10
131.534842
 20
161.539918
 30
0.0
 10
131.528310
 20
161.454165
 30
0.0
 10
131.515300
 20
161.283370
 30
0.0
 10
131.412486
 20
161.044435
 30
0.0
 10
131.256064
 20
160.838816
 30
0.0
 10
131.050445
 20
160.682395
 30
0.0
 10
130.811511
 20
160.579581
 30
0.0
 10
130.640715
 20
160.566571
 30
0.0
 10
130.554963
 20
160.560039
 30
0.0
 11
131.534842
 21
161.539918
 31
0.0
 11
131.501271
 21
161.285616
 31
0.0
 11
131.403922
 21
161.050595
 31
0.0
 11
131.247842
 21
160.847039
 31
0.0
 11
131.044285
 21
160.690959
 31
0.0
 11
130.809264
 21
160.593610
 31
0.0
 11
130.554963
 21
160.560039
 31
0.0
  0
LINE
  5
129
100
AcDbEntity
  8
Calque_2
 62
7
100
AcDbLine
 10
129.483510
 20
161.539918
 30
0.0
 11
129.483510
 21
165.598864
 31
0.0
  0
SPLINE
  5
12a
100
AcDbEntity
  8
Calque_2
 62
7
100
AcDbSpline
 70
0
 71
3
 72
13
 73
9
 74
7
 40
0.000000
 40
0.000000
 40
0.000000
 40
0.000000
 40
0.256508
 40
0.510893
 40
0.767400
 40
1.023908
 40
1.278293
 40
1.534801
 40
1.534801
 40
1.534801
 40
1.534801
 10
130.463389
 20
160.560039
 30
0.0
 10
130.377637
 20
160.566571
 30
0.0
 10
130.206841
 20
160.579581
 30
0.0
 10
129.967907
 20
160.682395
 30
0.0
 10
129.762288
 20
160.838816
 30
0.0
 10
129.605866
 20
161.044435
 30
0.0
 10
129.503052
 20
161.283370
 30
0.0
 10
129.490042
 20
161.454165
 30
0.0
 10
129.483510
 20
161.539918
 30
0.0
 11
130.463389
 21
160.560039
 31
0.0
 11
130.209088
 21
160.593610
 31
0.0
 11
129.974067
 21
160.690959
 31
0.0
 11
129.770510
 21
160.847039
 31
0.0
 11
129.614430
 21
161.050595
 31
0.0
 11
129.517081
 21
161.285616
 31
0.0
 11
129.483510
 21
161.539918
 31
0.0
  0
LINE
  5
12b
100
AcDbEntity
  8
Calque_2
 62
7
100
AcDbLine
 10
130.463389
 20
166.578743
 30
0.0
 11
130.463389
 21
166.578743
 31
0.0
  0
LINE
  5
12c
100
AcDbEntity
  8
Calque_2
 62
7
100
AcDbLine
 10
147.810162
 20
195.942949
 30
0.0
 11
148.625287
 21
195.724537
 31
0.0
  0
SPLINE
  5
12d
100
AcDbEntity
  8
Calque_2
 62
7
100
AcDbSpline
 70
0
 71
3
 72
13
 73
9
 74
7
 40
0.000000
 40
0.000000
 40
0.000000
 40
0.000000
 40
0.256508
 40
0.510893
 40
0.767400
 40
1.023908
 40
1.278293
 40
1.534801
 40
1.534801
 40
1.534801
 40
1.534801
 10
129.483510
 20
165.598864
 30
0.0
 10
129.490042
 20
165.684616
 30
0.0
 10
129.503052
 20
165.855412
 30
0.0
 10
129.605866
 20
166.094346
 30
0.0
 10
129.762288
 20
166.299965
 30
0.0
 10
129.967907
 20
166.456387
 30
0.0
 10
130.206841
 20
166.559201
 30
0.0
 10
130.377637
 20
166.572211
 30
0.0
 10
130.463389
 20
166.578743
 30
0.0
 11
129.483510
 21
165.598864
 31
0.0
 11
129.517081
 21
165.853165
 31
0.0
 11
129.614430
 21
166.088186
 31
0.0
 11
129.770510
 21
166.291743
 31
0.0
 11
129.974067
 21
166.447823
 31
0.0
 11
130.209088
 21
166.545172
 31
0.0
 11
130.463389
 21
166.578743
 31
0.0
  0
LINE
  5
12e
100
AcDbEntity
  8
Calque_2
 62
7
100
AcDbLine
 10
149.776498
 20
193.730582
 30
0.0
 11
148.031050
 21
187.216481
 31
0.0
  0
SPLINE
  5
12f
100
AcDbEntity
  8
Calque_2
 62
7
100
AcDbSpline
 70
0
 71
3
 72
13
 73
9
 74
7
 40
0.000000
 40
0.000000
 40
0.000000
 40
0.000000
 40
0.426185
 40
0.848842
 40
1.275027
 40
1.701211
 40
2.123869
 40
2.550054
 40
2.550054
 40
2.550054
 40
2.550054
 10
148.625287
 20
195.724537
 30
0.0
 10
148.760100
 20
195.677178
 30
0.0
 10
149.028610
 20
195.582852
 30
0.0
 10
149.367858
 20
195.315101
 30
0.0
 10
149.630585
 20
194.975643
 30
0.0
 10
149.793201
 20
194.578385
 30
0.0
 10
149.855456
 20
194.150712
 30
0.0
 10
149.802890
 20
193.871013
 30
0.0
 10
149.776498
 20
193.730582
 30
0.0
 11
148.625287
 21
195.724537
 31
0.0
 11
149.018972
 21
195.561303
 31
0.0
 11
149.354289
 21
195.304006
 31
0.0
 11
149.613854
 21
194.965983
 31
0.0
 11
149.776808
 21
194.572182
 31
0.0
 11
149.831976
 21
194.153140
 31
0.0
 11
149.776498
 21
193.730582
 31
0.0
  0
LINE
  5
130
100
AcDbEntity
  8
Calque_2
 62
7
100
AcDbLine
 10
146.037095
 20
186.065271
 30
0.0
 11
145.221969
 21
186.283683
 31
0.0
  0
SPLINE
  5
131
100
AcDbEntity
  8
Calque_2
 62
7
100
AcDbSpline
 70
0
 71
3
 72
13
 73
9
 74
7
 40
0.000000
 40
0.000000
 40
0.000000
 40
0.000000
 40
0.426185
 40
0.848842
 40
1.275027
 40
1.701211
 40
2.123869
 40
2.550054
 40
2.550054
 40
2.550054
 40
2.550054
 10
148.031050
 20
187.216481
 30
0.0
 10
147.983691
 20
187.081668
 30
0.0
 10
147.889365
 20
186.813158
 30
0.0
 10
147.621613
 20
186.473911
 30
0.0
 10
147.282156
 20
186.211183
 30
0.0
 10
146.884898
 20
186.048568
 30
0.0
 10
146.457225
 20
185.986312
 30
0.0
 10
146.177525
 20
186.038878
 30
0.0
 10
146.037095
 20
186.065271
 30
0.0
 11
148.031050
 21
187.216481
 31
0.0
 11
147.867816
 21
186.822796
 31
0.0
 11
147.610518
 21
186.487479
 31
0.0
 11
147.272496
 21
186.227914
 31
0.0
 11
146.878695
 21
186.064960
 31
0.0
 11
146.459653
 21
186.009792
 31
0.0
 11
146.037095
 21
186.065271
 31
0.0
  0
LINE
  5
132
100
AcDbEntity
  8
Calque_2
 62
7
100
AcDbLine
 10
144.070759
 20
188.277638
 30
0.0
 11
145.816207
 21
194.791738
 31
0.0
  0
SPLINE
  5
133
100
AcDbEntity
  8
Calque_2
 62
7
100
AcDbSpline
 70
0
 71
3
 72
13
 73
9
 74
7
 40
0.000000
 40
0.000000
 40
0.000000
 40
0.000000
 40
0.426185
 40
0.848842
 40
1.275027
 40
1.701211
 40
2.123869
 40
2.550054
 40
2.550054
 40
2.550054
 40
2.550054
 10
145.221969
 20
186.283683
 30
0.0
 10
145.087156
 20
186.331042
 30
0.0
 10
144.818646
 20
186.425368
 30
0.0
 10
144.479399
 20
186.693119
 30
0.0
 10
144.216671
 20
187.032577
 30
0.0
 10
144.054056
 20
187.429835
 30
0.0
 10
143.991800
 20
187.857508
 30
0.0
 10
144.044366
 20
188.137207
 30
0.0
 10
144.070759
 20
188.277638
 30
0.0
 11
145.221969
 21
186.283683
 31
0.0
 11
144.828284
 21
186.446916
 31
0.0
 11
144.492967
 21
186.704214
 31
0.0
 11
144.233402
 21
187.042237
 31
0.0
 11
144.070448
 21
187.436038
 31
0.0
 11
144.015280
 21
187.855080
 31
0.0
 11
144.070759
 21
188.277638
 31
0.0
  0
LINE
  5
134
100
AcDbEntity
  8
Calque_2
 62
7
100
AcDbLine
 10
147.810162
 20
195.942949
 30
0.0
 11
147.810162
 21
195.942949
 31
0.0
  0
LINE
  5
135
100
AcDbEntity
  8
Calque_2
 62
7
100
AcDbLine
 10
177.713692
 20
214.245431
 30
0.0
 11
180.024499
 21
212.911286
 31
0.0
  0
SPLINE
  5
136
100
AcDbEntity
  8
Calque_2
 62
7
100
AcDbSpline
 70
0
 71
3
 72
13
 73
9
 74
7
 40
0.000000
 40
0.000000
 40
0.000000
 40
0.000000
 40
0.426185
 40
0.848842
 40
1.275027
 40
1.701211
 40
2.123869
 40
2.550054
 40
2.550054
 40
2.550054
 40
2.550054
 10
145.816207
 20
194.791738
 30
0.0
 10
145.863566
 20
194.926551
 30
0.0
 10
145.957891
 20
195.195061
 30
0.0
 10
146.225643
 20
195.534309
 30
0.0
 10
146.565101
 20
195.797037
 30
0.0
 10
146.962359
 20
195.959652
 30
0.0
 10
147.390032
 20
196.021908
 30
0.0
 10
147.669731
 20
195.969341
 30
0.0
 10
147.810162
 20
195.942949
 30
0.0
 11
145.816207
 21
194.791738
 31
0.0
 11
145.979440
 21
195.185424
 31
0.0
 11
146.236738
 21
195.520741
 31
0.0
 11
146.574761
 21
195.780305
 31
0.0
 11
146.968562
 21
195.943259
 31
0.0
 11
147.387604
 21
195.998427
 31
0.0
 11
147.810162
 21
195.942949
 31
0.0
  0
LINE
  5
137
100
AcDbEntity
  8
Calque_2
 62
7
100
AcDbLine
 10
180.644881
 20
210.595988
 30
0.0
 11
177.134462
 21
204.515763
 31
0.0
  0
SPLINE
  5
138
100
AcDbEntity
  8
Calque_2
 62
7
100
AcDbSpline
 70
0
 71
3
 72
13
 73
9
 74
7
 40
0.000000
 40
0.000000
 40
0.000000
 40
0.000000
 40
0.443686
 40
0.883701
 40
1.327388
 40
1.771074
 40
2.211089
 40
2.654775
 40
2.654775
 40
2.654775
 40
2.654775
 10
180.024499
 20
212.911286
 30
0.0
 10
180.147305
 20
212.827337
 30
0.0
 10
180.391901
 20
212.660135
 30
0.0
 10
180.660901
 20
212.299476
 30
0.0
 10
180.833632
 20
211.887328
 30
0.0
 10
180.890117
 20
211.444032
 30
0.0
 10
180.837485
 20
210.997193
 30
0.0
 10
180.709260
 20
210.730093
 30
0.0
 10
180.644881
 20
210.595988
 30
0.0
 11
180.024499
 21
212.911286
 31
0.0
 11
180.376403
 21
212.641062
 31
0.0
 11
180.644267
 21
212.291975
 31
0.0
 11
180.814204
 21
211.882122
 31
0.0
 11
180.871961
 21
211.442211
 31
0.0
 11
180.814527
 21
211.005961
 31
0.0
 11
180.644881
 21
210.595988
 31
0.0
  0
LINE
  5
139
100
AcDbEntity
  8
Calque_2
 62
7
100
AcDbLine
 10
174.819163
 20
203.895381
 30
0.0
 11
172.508356
 21
205.229526
 31
0.0
  0
SPLINE
  5
13a
100
AcDbEntity
  8
Calque_2
 62
7
100
AcDbSpline
 70
0
 71
3
 72
13
 73
9
 74
7
 40
0.000000
 40
0.000000
 40
0.000000
 40
0.000000
 40
0.443686
 40
0.883701
 40
1.327388
 40
1.771074
 40
2.211089
 40
2.654775
 40
2.654775
 40
2.654775
 40
2.654775
 10
177.134462
 20
204.515763
 30
0.0
 10
177.050513
 20
204.392957
 30
0.0
 10
176.883310
 20
204.148361
 30
0.0
 10
176.522651
 20
203.879361
 30
0.0
 10
176.110504
 20
203.706630
 30
0.0
 10
175.667208
 20
203.650145
 30
0.0
 10
175.220368
 20
203.702777
 30
0.0
 10
174.953268
 20
203.831002
 30
0.0
 10
174.819163
 20
203.895381
 30
0.0
 11
177.134462
 21
204.515763
 31
0.0
 11
176.864238
 21
204.163859
 31
0.0
 11
176.515150
 21
203.895995
 31
0.0
 11
176.105298
 21
203.726058
 31
0.0
 11
175.665387
 21
203.668301
 31
0.0
 11
175.229136
 21
203.725735
 31
0.0
 11
174.819163
 21
203.895381
 31
0.0
  0
LINE
  5
13b
100
AcDbEntity
  8
Calque_2
 62
7
100
AcDbLine
 10
171.887974
 20
207.544824
 30
0.0
 11
175.398393
 21
213.625049
 31
0.0
  0
SPLINE
  5
13c
100
AcDbEntity
  8
Calque_2
 62
7
100
AcDbSpline
 70
0
 71
3
 72
13
 73
9
 74
7
 40
0.000000
 40
0.000000
 40
0.000000
 40
0.000000
 40
0.443686
 40
0.883701
 40
1.327388
 40
1.771074
 40
2.211089
 40
2.654775
 40
2.654775
 40
2.654775
 40
2.654775
 10
172.508356
 20
205.229526
 30
0.0
 10
172.385550
 20
205.313475
 30
0.0
 10
172.140954
 20
205.480677
 30
0.0
 10
171.871954
 20
205.841336
 30
0.0
 10
171.699223
 20
206.253484
 30
0.0
 10
171.642738
 20
206.696780
 30
0.0
 10
171.695370
 20
207.143619
 30
0.0
 10
171.823595
 20
207.410719
 30
0.0
 10
171.887974
 20
207.544824
 30
0.0
 11
172.508356
 21
205.229526
 31
0.0
 11
172.156452
 21
205.499750
 31
0.0
 11
171.888588
 21
205.848837
 31
0.0
 11
171.718651
 21
206.258689
 31
0.0
 11
171.660894
 21
206.698601
 31
0.0
 11
171.718328
 21
207.134851
 31
0.0
 11
171.887974
 21
207.544824
 31
0.0
  0
LINE
  5
13d
100
AcDbEntity
  8
Calque_2
 62
7
100
AcDbLine
 10
177.713692
 20
214.245431
 30
0.0
 11
177.713692
 21
214.245431
 31
0.0
  0
LINE
  5
13e
100
AcDbEntity
  8
Calque_2
 62
7
100
AcDbLine
 10
215.658340
 20
218.512766
 30
0.0
 11
219.156505
 21
215.014600
 31
0.0
  0
SPLINE
  5
13f
100
AcDbEntity
  8
Calque_2
 62
7
100
AcDbSpline
 70
0
 71
3
 72
13
 73
9
 74
7
 40
0.000000
 40
0.000000
 40
0.000000
 40
0.000000
 40
0.443686
 40
0.883701
 40
1.327388
 40
1.771074
 40
2.211089
 40
2.654775
 40
2.654775
 40
2.654775
 40
2.654775
 10
175.398393
 20
213.625049
 30
0.0
 10
175.482342
 20
213.747855
 30
0.0
 10
175.649545
 20
213.992451
 30
0.0
 10
176.010204
 20
214.261451
 30
0.0
 10
176.422351
 20
214.434182
 30
0.0
 10
176.865647
 20
214.490667
 30
0.0
 10
177.312487
 20
214.438035
 30
0.0
 10
177.579587
 20
214.309810
 30
0.0
 10
177.713692
 20
214.245431
 30
0.0
 11
175.398393
 21
213.625049
 31
0.0
 11
175.668617
 21
213.976953
 31
0.0
 11
176.017705
 21
214.244817
 31
0.0
 11
176.427557
 21
214.414754
 31
0.0
 11
176.867468
 21
214.472511
 31
0.0
 11
177.303719
 21
214.415077
 31
0.0
 11
177.713692
 21
214.245431
 31
0.0
  0
LINE
  5
140
100
AcDbEntity
  8
Calque_2
 62
7
100
AcDbLine
 10
219.156505
 20
212.661166
 30
0.0
 11
214.282197
 21
207.786858
 31
0.0
  0
SPLINE
  5
141
100
AcDbEntity
  8
Calque_2
 62
7
100
AcDbSpline
 70
0
 71
3
 72
13
 73
9
 74
7
 40
0.000000
 40
0.000000
 40
0.000000
 40
0.000000
 40
0.435627
 40
0.867650
 40
1.303277
 40
1.738904
 40
2.170927
 40
2.606554
 40
2.606554
 40
2.606554
 40
2.606554
 10
219.156505
 20
215.014600
 30
0.0
 10
219.251639
 20
214.903778
 30
0.0
 10
219.441120
 20
214.683050
 30
0.0
 10
219.604585
 20
214.272650
 30
0.0
 10
219.663666
 20
213.837883
 30
0.0
 10
219.604585
 20
213.403116
 30
0.0
 10
219.441120
 20
212.992717
 30
0.0
 10
219.251639
 20
212.771989
 30
0.0
 10
219.156505
 20
212.661166
 30
0.0
 11
219.156505
 21
215.014600
 31
0.0
 11
219.421576
 21
214.668900
 31
0.0
 11
219.586904
 21
214.269763
 31
0.0
 11
219.643918
 21
213.837883
 31
0.0
 11
219.586904
 21
213.406003
 31
0.0
 11
219.421576
 21
213.006866
 31
0.0
 11
219.156505
 21
212.661166
 31
0.0
  0
LINE
  5
142
100
AcDbEntity
  8
Calque_2
 62
7
100
AcDbLine
 10
211.928762
 20
207.786858
 30
0.0
 11
208.430597
 21
211.285023
 31
0.0
  0
SPLINE
  5
143
100
AcDbEntity
  8
Calque_2
 62
7
100
AcDbSpline
 70
0
 71
3
 72
13
 73
9
 74
7
 40
0.000000
 40
0.000000
 40
0.000000
 40
0.000000
 40
0.435627
 40
0.867650
 40
1.303277
 40
1.738904
 40
2.170927
 40
2.606554
 40
2.606554
 40
2.606554
 40
2.606554
 10
214.282197
 20
207.786858
 30
0.0
 10
214.171374
 20
207.691724
 30
0.0
 10
213.950646
 20
207.502243
 30
0.0
 10
213.540247
 20
207.338778
 30
0.0
 10
213.105480
 20
207.279697
 30
0.0
 10
212.670713
 20
207.338778
 30
0.0
 10
212.260313
 20
207.502243
 30
0.0
 10
212.039585
 20
207.691724
 30
0.0
 10
211.928762
 20
207.786858
 30
0.0
 11
214.282197
 21
207.786858
 31
0.0
 11
213.936497
 21
207.521787
 31
0.0
 11
213.537360
 21
207.356459
 31
0.0
 11
213.105480
 21
207.299445
 31
0.0
 11
212.673599
 21
207.356459
 31
0.0
 11
212.274463
 21
207.521787
 31
0.0
 11
211.928762
 21
207.786858
 31
0.0
  0
LINE
  5
144
100
AcDbEntity
  8
Calque_2
 62
7
100
AcDbLine
 10
208.430597
 20
213.638457
 30
0.0
 11
213.304906
 21
218.512766
 31
0.0
  0
SPLINE
  5
145
100
AcDbEntity
  8
Calque_2
 62
7
100
AcDbSpline
 70
0
 71
3
 72
13
 73
9
 74
7
 40
0.000000
 40
0.000000
 40
0.000000
 40
0.000000
 40
0.435627
 40
0.867650
 40
1.303277
 40
1.738904
 40
2.170927
 40
2.606554
 40
2.606554
 40
2.606554
 40
2.606554
 10
208.430597
 20
211.285023
 30
0.0
 10
208.335463
 20
211.395845
 30
0.0
 10
208.145982
 20
211.616574
 30
0.0
 10
207.982518
 20
212.026973
 30
0.0
 10
207.923437
 20
212.461740
 30
0.0
 10
207.982518
 20
212.896507
 30
0.0
 10
208.145982
 20
213.306906
 30
0.0
 10
208.335463
 20
213.527635
 30
0.0
 10
208.430597
 20
213.638457
 30
0.0
 11
208.430597
 21
211.285023
 31
0.0
 11
208.165527
 21
211.630723
 31
0.0
 11
208.000199
 21
212.029860
 31
0.0
 11
207.943185
 21
212.461740
 31
0.0
 11
208.000199
 21
212.893620
 31
0.0
 11
208.165527
 21
213.292757
 31
0.0
 11
208.430597
 21
213.638457
 31
0.0
  0
LINE
  5
146
100
AcDbEntity
  8
Calque_2
 62
7
100
AcDbLine
 10
215.658340
 20
218.512766
 30
0.0
 11
215.658340
 21
218.512766
 31
0.0
  0
LINE
  5
147
100
AcDbEntity
  8
Calque_2
 62
7
100
AcDbLine
 10
131.063731
 20
92.998030
 30
0.0
 11
130.972157
 21
92.998030
 31
0.0
  0
SPLINE
  5
148
100
AcDbEntity
  8
Calque_2
 62
7
100
AcDbSpline
 70
0
 71
3
 72
13
 73
9
 74
7
 40
0.000000
 40
0.000000
 40
0.000000
 40
0.000000
 40
0.435627
 40
0.867650
 40
1.303277
 40
1.738904
 40
2.170927
 40
2.606554
 40
2.606554
 40
2.606554
 40
2.606554
 10
213.304906
 20
218.512766
 30
0.0
 10
213.415728
 20
218.607900
 30
0.0
 10
213.636456
 20
218.797381
 30
0.0
 10
214.046856
 20
218.960845
 30
0.0
 10
214.481623
 20
219.019926
 30
0.0
 10
214.916390
 20
218.960845
 30
0.0
 10
215.326789
 20
218.797381
 30
0.0
 10
215.547518
 20
218.607900
 30
0.0
 10
215.658340
 20
218.512766
 30
0.0
 11
213.304906
 21
218.512766
 31
0.0
 11
213.650606
 21
218.777836
 31
0.0
 11
214.049743
 21
218.943164
 31
0.0
 11
214.481623
 21
219.000178
 31
0.0
 11
214.913503
 21
218.943164
 31
0.0
 11
215.312640
 21
218.777836
 31
0.0
 11
215.658340
 21
218.512766
 31
0.0
  0
LINE
  5
149
100
AcDbEntity
  8
Calque_2
 62
7
100
AcDbLine
 10
129.992278
 20
93.977909
 30
0.0
 11
129.992278
 21
98.036855
 31
0.0
  0
SPLINE
  5
14a
100
AcDbEntity
  8
Calque_2
 62
7
100
AcDbSpline
 70
0
 71
3
 72
13
 73
9
 74
7
 40
0.000000
 40
0.000000
 40
0.000000
 40
0.000000
 40
0.256508
 40
0.510893
 40
0.767400
 40
1.023908
 40
1.278293
 40
1.534801
 40
1.534801
 40
1.534801
 40
1.534801
 10
130.972157
 20
92.998030
 30
0.0
 10
130.886405
 20
93.004562
 30
0.0
 10
130.715609
 20
93.017572
 30
0.0
 10
130.476675
 20
93.120386
 30
0.0
 10
130.271056
 20
93.276808
 30
0.0
 10
130.114634
 20
93.482427
 30
0.0
 10
130.011820
 20
93.721361
 30
0.0
 10
129.998810
 20
93.892157
 30
0.0
 10
129.992278
 20
93.977909
 30
0.0
 11
130.972157
 21
92.998030
 31
0.0
 11
130.717856
 21
93.031601
 31
0.0
 11
130.482835
 21
93.128950
 31
0.0
 11
130.279278
 21
93.285030
 31
0.0
 11
130.123198
 21
93.488587
 31
0.0
 11
130.025849
 21
93.723608
 31
0.0
 11
129.992278
 21
93.977909
 31
0.0
  0
LINE
  5
14b
100
AcDbEntity
  8
Calque_2
 62
7
100
AcDbLine
 10
130.972157
 20
99.016734
 30
0.0
 11
131.063731
 21
99.016734
 31
0.0
  0
SPLINE
  5
14c
100
AcDbEntity
  8
Calque_2
 62
7
100
AcDbSpline
 70
0
 71
3
 72
13
 73
9
 74
7
 40
0.000000
 40
0.000000
 40
0.000000
 40
0.000000
 40
0.256508
 40
0.510893
 40
0.767400
 40
1.023908
 40
1.278293
 40
1.534801
 40
1.534801
 40
1.534801
 40
1.534801
 10
129.992278
 20
98.036855
 30
0.0
 10
129.998810
 20
98.122608
 30
0.0
 10
130.011820
 20
98.293403
 30
0.0
 10
130.114634
 20
98.532338
 30
0.0
 10
130.271056
 20
98.737957
 30
0.0
 10
130.476675
 20
98.894378
 30
0.0
 10
130.715609
 20
98.997192
 30
0.0
 10
130.886405
 20
99.010202
 30
0.0
 10
130.972157
 20
99.016734
 30
0.0
 11
129.992278
 21
98.036855
 31
0.0
 11
130.025849
 21
98.291157
 31
0.0
 11
130.123198
 21
98.526178
 31
0.0
 11
130.279278
 21
98.729734
 31
0.0
 11
130.482835
 21
98.885814
 31
0.0
 11
130.717856
 21
98.983163
 31
0.0
 11
130.972157
 21
99.016734
 31
0.0
  0
LINE
  5
14d
100
AcDbEntity
  8
Calque_2
 62
7
100
AcDbLine
 10
132.043610
 20
98.036855
 30
0.0
 11
132.043610
 21
93.977909
 31
0.0
  0
SPLINE
  5
14e
100
AcDbEntity
  8
Calque_2
 62
7
100
AcDbSpline
 70
0
 71
3
 72
13
 73
9
 74
7
 40
0.000000
 40
0.000000
 40
0.000000
 40
0.000000
 40
0.256508
 40
0.510893
 40
0.767400
 40
1.023908
 40
1.278293
 40
1.534801
 40
1.534801
 40
1.534801
 40
1.534801
 10
131.063731
 20
99.016734
 30
0.0
 10
131.149483
 20
99.010202
 30
0.0
 10
131.320279
 20
98.997192
 30
0.0
 10
131.559213
 20
98.894378
 30
0.0
 10
131.764832
 20
98.737957
 30
0.0
 10
131.921254
 20
98.532338
 30
0.0
 10
132.024068
 20
98.293403
 30
0.0
 10
132.037078
 20
98.122608
 30
0.0
 10
132.043610
 20
98.036855
 30
0.0
 11
131.063731
 21
99.016734
 31
0.0
 11
131.318032
 21
98.983163
 31
0.0
 11
131.553053
 21
98.885814
 31
0.0
 11
131.756610
 21
98.729734
 31
0.0
 11
131.912690
 21
98.526178
 31
0.0
 11
132.010039
 21
98.291157
 31
0.0
 11
132.043610
 21
98.036855
 31
0.0
  0
LINE
  5
14f
100
AcDbEntity
  8
Calque_2
 62
7
100
AcDbLine
 10
131.063731
 20
92.998030
 30
0.0
 11
131.063731
 21
92.998030
 31
0.0
  0
LINE
  5
150
100
AcDbEntity
  8
Calque_2
 62
7
100
AcDbLine
 10
113.716969
 20
63.633828
 30
0.0
 11
112.901844
 21
63.852240
 31
0.0
  0
SPLINE
  5
151
100
AcDbEntity
  8
Calque_2
 62
7
100
AcDbSpline
 70
0
 71
3
 72
13
 73
9
 74
7
 40
0.000000
 40
0.000000
 40
0.000000
 40
0.000000
 40
0.256508
 40
0.510893
 40
0.767400
 40
1.023908
 40
1.278293
 40
1.534801
 40
1.534801
 40
1.534801
 40
1.534801
 10
132.043610
 20
93.977909
 30
0.0
 10
132.037078
 20
93.892157
 30
0.0
 10
132.024068
 20
93.721361
 30
0.0
 10
131.921254
 20
93.482427
 30
0.0
 10
131.764832
 20
93.276808
 30
0.0
 10
131.559213
 20
93.120386
 30
0.0
 10
131.320279
 20
93.017572
 30
0.0
 10
131.149483
 20
93.004562
 30
0.0
 10
131.063731
 20
92.998030
 30
0.0
 11
132.043610
 21
93.977909
 31
0.0
 11
132.010039
 21
93.723608
 31
0.0
 11
131.912690
 21
93.488587
 31
0.0
 11
131.756610
 21
93.285030
 31
0.0
 11
131.553053
 21
93.128950
 31
0.0
 11
131.318032
 21
93.031601
 31
0.0
 11
131.063731
 21
92.998030
 31
0.0
  0
LINE
  5
152
100
AcDbEntity
  8
Calque_2
 62
7
100
AcDbLine
 10
111.750633
 20
65.846195
 30
0.0
 11
113.496081
 21
72.360295
 31
0.0
  0
SPLINE
  5
153
100
AcDbEntity
  8
Calque_2
 62
7
100
AcDbSpline
 70
0
 71
3
 72
13
 73
9
 74
7
 40
0.000000
 40
0.000000
 40
0.000000
 40
0.000000
 40
0.426185
 40
0.848842
 40
1.275027
 40
1.701211
 40
2.123869
 40
2.550054
 40
2.550054
 40
2.550054
 40
2.550054
 10
112.901844
 20
63.852240
 30
0.0
 10
112.767031
 20
63.899599
 30
0.0
 10
112.498521
 20
63.993924
 30
0.0
 10
112.159273
 20
64.261676
 30
0.0
 10
111.896545
 20
64.601134
 30
0.0
 10
111.733930
 20
64.998392
 30
0.0
 10
111.671674
 20
65.426065
 30
0.0
 10
111.724241
 20
65.705764
 30
0.0
 10
111.750633
 20
65.846195
 30
0.0
 11
112.901844
 21
63.852240
 31
0.0
 11
112.508159
 21
64.015473
 31
0.0
 11
112.172842
 21
64.272771
 31
0.0
 11
111.913277
 21
64.610794
 31
0.0
 11
111.750323
 21
65.004595
 31
0.0
 11
111.695155
 21
65.423637
 31
0.0
 11
111.750633
 21
65.846195
 31
0.0
  0
LINE
  5
154
100
AcDbEntity
  8
Calque_2
 62
7
100
AcDbLine
 10
115.490036
 20
73.511506
 30
0.0
 11
116.305162
 21
73.293094
 31
0.0
  0
SPLINE
  5
155
100
AcDbEntity
  8
Calque_2
 62
7
100
AcDbSpline
 70
0
 71
3
 72
13
 73
9
 74
7
 40
0.000000
 40
0.000000
 40
0.000000
 40
0.000000
 40
0.426185
 40
0.848842
 40
1.275027
 40
1.701211
 40
2.123869
 40
2.550054
 40
2.550054
 40
2.550054
 40
2.550054
 10
113.496081
 20
72.360295
 30
0.0
 10
113.543440
 20
72.495108
 30
0.0
 10
113.637766
 20
72.763618
 30
0.0
 10
113.905517
 20
73.102866
 30
0.0
 10
114.244975
 20
73.365594
 30
0.0
 10
114.642233
 20
73.528209
 30
0.0
 10
115.069906
 20
73.590465
 30
0.0
 10
115.349606
 20
73.537898
 30
0.0
 10
115.490036
 20
73.511506
 30
0.0
 11
113.496081
 21
72.360295
 31
0.0
 11
113.659315
 21
72.753981
 31
0.0
 11
113.916612
 21
73.089297
 31
0.0
 11
114.254635
 21
73.348862
 31
0.0
 11
114.648436
 21
73.511816
 31
0.0
 11
115.067478
 21
73.566984
 31
0.0
 11
115.490036
 21
73.511506
 31
0.0
  0
LINE
  5
156
100
AcDbEntity
  8
Calque_2
 62
7
100
AcDbLine
 10
117.456372
 20
71.299139
 30
0.0
 11
115.710924
 21
64.785038
 31
0.0
  0
SPLINE
  5
157
100
AcDbEntity
  8
Calque_2
 62
7
100
AcDbSpline
 70
0
 71
3
 72
13
 73
9
 74
7
 40
0.000000
 40
0.000000
 40
0.000000
 40
0.000000
 40
0.426185
 40
0.848842
 40
1.275027
 40
1.701211
 40
2.123869
 40
2.550054
 40
2.550054
 40
2.550054
 40
2.550054
 10
116.305162
 20
73.293094
 30
0.0
 10
116.439974
 20
73.245735
 30
0.0
 10
116.708484
 20
73.151409
 30
0.0
 10
117.047732
 20
72.883657
 30
0.0
 10
117.310460
 20
72.544200
 30
0.0
 10
117.473075
 20
72.146942
 30
0.0
 10
117.535331
 20
71.719269
 30
0.0
 10
117.482764
 20
71.439569
 30
0.0
 10
117.456372
 20
71.299139
 30
0.0
 11
116.305162
 21
73.293094
 31
0.0
 11
116.698847
 21
73.129860
 31
0.0
 11
117.034164
 21
72.872562
 31
0.0
 11
117.293728
 21
72.534540
 31
0.0
 11
117.456683
 21
72.140739
 31
0.0
 11
117.511850
 21
71.721697
 31
0.0
 11
117.456372
 21
71.299139
 31
0.0
  0
LINE
  5
158
100
AcDbEntity
  8
Calque_2
 62
7
100
AcDbLine
 10
113.716969
 20
63.633828
 30
0.0
 11
113.716969
 21
63.633828
 31
0.0
  0
LINE
  5
159
100
AcDbEntity
  8
Calque_2
 62
7
100
AcDbLine
 10
83.813442
 20
45.331331
 30
0.0
 11
81.502634
 21
46.665476
 31
0.0
  0
SPLINE
  5
15a
100
AcDbEntity
  8
Calque_2
 62
7
100
AcDbSpline
 70
0
 71
3
 72
13
 73
9
 74
7
 40
0.000000
 40
0.000000
 40
0.000000
 40
0.000000
 40
0.426185
 40
0.848842
 40
1.275027
 40
1.701211
 40
2.123869
 40
2.550054
 40
2.550054
 40
2.550054
 40
2.550054
 10
115.710924
 20
64.785038
 30
0.0
 10
115.663565
 20
64.650225
 30
0.0
 10
115.569239
 20
64.381715
 30
0.0
 10
115.301488
 20
64.042467
 30
0.0
 10
114.962030
 20
63.779740
 30
0.0
 10
114.564772
 20
63.617124
 30
0.0
 10
114.137099
 20
63.554869
 30
0.0
 10
113.857400
 20
63.607435
 30
0.0
 10
113.716969
 20
63.633828
 30
0.0
 11
115.710924
 21
64.785038
 31
0.0
 11
115.547691
 21
64.391353
 31
0.0
 11
115.290393
 21
64.056036
 31
0.0
 11
114.952370
 21
63.796471
 31
0.0
 11
114.558569
 21
63.633517
 31
0.0
 11
114.139527
 21
63.578349
 31
0.0
 11
113.716969
 21
63.633828
 31
0.0
  0
LINE
  5
15b
100
AcDbEntity
  8
Calque_2
 62
7
100
AcDbLine
 10
80.882252
 20
48.980774
 30
0.0
 11
84.392672
 21
55.060999
 31
0.0
  0
SPLINE
  5
15c
100
AcDbEntity
  8
Calque_2
 62
7
100
AcDbSpline
 70
0
 71
3
 72
13
 73
9
 74
7
 40
0.000000
 40
0.000000
 40
0.000000
 40
0.000000
 40
0.443686
 40
0.883701
 40
1.327388
 40
1.771074
 40
2.211089
 40
2.654775
 40
2.654775
 40
2.654775
 40
2.654775
 10
81.502634
 20
46.665476
 30
0.0
 10
81.379828
 20
46.749425
 30
0.0
 10
81.135232
 20
46.916628
 30
0.0
 10
80.866232
 20
47.277286
 30
0.0
 10
80.693501
 20
47.689434
 30
0.0
 10
80.637017
 20
48.132730
 30
0.0
 10
80.689648
 20
48.579570
 30
0.0
 10
80.817873
 20
48.846670
 30
0.0
 10
80.882252
 20
48.980774
 30
0.0
 11
81.502634
 21
46.665476
 31
0.0
 11
81.150730
 21
46.935700
 31
0.0
 11
80.882866
 21
47.284787
 31
0.0
 11
80.712929
 21
47.694640
 31
0.0
 11
80.655173
 21
48.134551
 31
0.0
 11
80.712606
 21
48.570801
 31
0.0
 11
80.882252
 21
48.980774
 31
0.0
  0
LINE
  5
15d
100
AcDbEntity
  8
Calque_2
 62
7
100
AcDbLine
 10
86.707970
 20
55.681382
 30
0.0
 11
89.018777
 21
54.347237
 31
0.0
  0
SPLINE
  5
15e
100
AcDbEntity
  8
Calque_2
 62
7
100
AcDbSpline
 70
0
 71
3
 72
13
 73
9
 74
7
 40
0.000000
 40
0.000000
 40
0.000000
 40
0.000000
 40
0.443686
 40
0.883701
 40
1.327388
 40
1.771074
 40
2.211089
 40
2.654775
 40
2.654775
 40
2.654775
 40
2.654775
 10
84.392672
 20
55.060999
 30
0.0
 10
84.476620
 20
55.183806
 30
0.0
 10
84.643823
 20
55.428401
 30
0.0
 10
85.004482
 20
55.697402
 30
0.0
 10
85.416630
 20
55.870133
 30
0.0
 10
85.859926
 20
55.926617
 30
0.0
 10
86.306765
 20
55.873985
 30
0.0
 10
86.573865
 20
55.745761
 30
0.0
 10
86.707970
 20
55.681382
 30
0.0
 11
84.392672
 21
55.060999
 31
0.0
 11
84.662896
 21
55.412904
 31
0.0
 11
85.011983
 21
55.680768
 31
0.0
 11
85.421835
 21
55.850705
 31
0.0
 11
85.861746
 21
55.908461
 31
0.0
 11
86.297997
 21
55.851028
 31
0.0
 11
86.707970
 21
55.681382
 31
0.0
  0
LINE
  5
15f
100
AcDbEntity
  8
Calque_2
 62
7
100
AcDbLine
 10
89.639159
 20
52.031938
 30
0.0
 11
86.128740
 21
45.951713
 31
0.0
  0
SPLINE
  5
160
100
AcDbEntity
  8
Calque_2
 62
7
100
AcDbSpline
 70
0
 71
3
 72
13
 73
9
 74
7
 40
0.000000
 40
0.000000
 40
0.000000
 40
0.000000
 40
0.443686
 40
0.883701
 40
1.327388
 40
1.771074
 40
2.211089
 40
2.654775
 40
2.654775
 40
2.654775
 40
2.654775
 10
89.018777
 20
54.347237
 30
0.0
 10
89.141583
 20
54.263288
 30
0.0
 10
89.386179
 20
54.096085
 30
0.0
 10
89.655179
 20
53.735426
 30
0.0
 10
89.827910
 20
53.323279
 30
0.0
 10
89.884395
 20
52.879983
 30
0.0
 10
89.831763
 20
52.433143
 30
0.0
 10
89.703538
 20
52.166043
 30
0.0
 10
89.639159
 20
52.031938
 30
0.0
 11
89.018777
 21
54.347237
 31
0.0
 11
89.370681
 21
54.077013
 31
0.0
 11
89.638545
 21
53.727925
 31
0.0
 11
89.808482
 21
53.318073
 31
0.0
 11
89.866239
 21
52.878162
 31
0.0
 11
89.808805
 21
52.441911
 31
0.0
 11
89.639159
 21
52.031938
 31
0.0
  0
LINE
  5
161
100
AcDbEntity
  8
Calque_2
 62
7
100
AcDbLine
 10
83.813442
 20
45.331331
 30
0.0
 11
83.813442
 21
45.331331
 31
0.0
  0
LINE
  5
162
100
AcDbEntity
  8
Calque_2
 62
7
100
AcDbLine
 10
45.868780
 20
41.063993
 30
0.0
 11
42.370615
 21
44.562158
 31
0.0
  0
SPLINE
  5
163
100
AcDbEntity
  8
Calque_2
 62
7
100
AcDbSpline
 70
0
 71
3
 72
13
 73
9
 74
7
 40
0.000000
 40
0.000000
 40
0.000000
 40
0.000000
 40
0.443686
 40
0.883701
 40
1.327388
 40
1.771074
 40
2.211089
 40
2.654775
 40
2.654775
 40
2.654775
 40
2.654775
 10
86.128740
 20
45.951713
 30
0.0
 10
86.044791
 20
45.828907
 30
0.0
 10
85.877588
 20
45.584311
 30
0.0
 10
85.516930
 20
45.315311
 30
0.0
 10
85.104782
 20
45.142580
 30
0.0
 10
84.661486
 20
45.086096
 30
0.0
 10
84.214646
 20
45.138727
 30
0.0
 10
83.947546
 20
45.266952
 30
0.0
 10
83.813442
 20
45.331331
 30
0.0
 11
86.128740
 21
45.951713
 31
0.0
 11
85.858516
 21
45.599809
 31
0.0
 11
85.509429
 21
45.331945
 31
0.0
 11
85.099576
 21
45.162008
 31
0.0
 11
84.659665
 21
45.104251
 31
0.0
 11
84.223415
 21
45.161685
 31
0.0
 11
83.813442
 21
45.331331
 31
0.0
  0
LINE
  5
164
100
AcDbEntity
  8
Calque_2
 62
7
100
AcDbLine
 10
42.370615
 20
46.915593
 30
0.0
 11
47.244923
 21
51.789901
 31
0.0
  0
SPLINE
  5
165
100
AcDbEntity
  8
Calque_2
 62
7
100
AcDbSpline
 70
0
 71
3
 72
13
 73
9
 74
7
 40
0.000000
 40
0.000000
 40
0.000000
 40
0.000000
 40
0.435627
 40
0.867650
 40
1.303277
 40
1.738904
 40
2.170927
 40
2.606554
 40
2.606554
 40
2.606554
 40
2.606554
 10
42.370615
 20
44.562158
 30
0.0
 10
42.275481
 20
44.672981
 30
0.0
 10
42.086000
 20
44.893709
 30
0.0
 10
41.922535
 20
45.304108
 30
0.0
 10
41.863454
 20
45.738875
 30
0.0
 10
41.922535
 20
46.173642
 30
0.0
 10
42.086000
 20
46.584042
 30
0.0
 10
42.275481
 20
46.804770
 30
0.0
 10
42.370615
 20
46.915593
 30
0.0
 11
42.370615
 21
44.562158
 31
0.0
 11
42.105544
 21
44.907858
 31
0.0
 11
41.940216
 21
45.306995
 31
0.0
 11
41.883202
 21
45.738875
 31
0.0
 11
41.940216
 21
46.170756
 31
0.0
 11
42.105544
 21
46.569892
 31
0.0
 11
42.370615
 21
46.915593
 31
0.0
  0
LINE
  5
166
100
AcDbEntity
  8
Calque_2
 62
7
100
AcDbLine
 10
49.598358
 20
51.789901
 30
0.0
 11
53.096523
 21
48.291736
 31
0.0
  0
SPLINE
  5
167
100
AcDbEntity
  8
Calque_2
 62
7
100
AcDbSpline
 70
0
 71
3
 72
13
 73
9
 74
7
 40
0.000000
 40
0.000000
 40
0.000000
 40
0.000000
 40
0.435627
 40
0.867650
 40
1.303277
 40
1.738904
 40
2.170927
 40
2.606554
 40
2.606554
 40
2.606554
 40
2.606554
 10
47.244923
 20
51.789901
 30
0.0
 10
47.355746
 20
51.885035
 30
0.0
 10
47.576474
 20
52.074516
 30
0.0
 10
47.986873
 20
52.237981
 30
0.0
 10
48.421640
 20
52.297061
 30
0.0
 10
48.856407
 20
52.237981
 30
0.0
 10
49.266807
 20
52.074516
 30
0.0
 10
49.487535
 20
51.885035
 30
0.0
 10
49.598358
 20
51.789901
 30
0.0
 11
47.244923
 21
51.789901
 31
0.0
 11
47.590623
 21
52.054971
 31
0.0
 11
47.989760
 21
52.220299
 31
0.0
 11
48.421640
 21
52.277313
 31
0.0
 11
48.853521
 21
52.220299
 31
0.0
 11
49.252657
 21
52.054971
 31
0.0
 11
49.598358
 21
51.789901
 31
0.0
  0
LINE
  5
168
100
AcDbEntity
  8
Calque_2
 62
7
100
AcDbLine
 10
53.096523
 20
45.938301
 30
0.0
 11
48.222214
 21
41.063993
 31
0.0
  0
SPLINE
  5
169
100
AcDbEntity
  8
Calque_2
 62
7
100
AcDbSpline
 70
0
 71
3
 72
13
 73
9
 74
7
 40
0.000000
 40
0.000000
 40
0.000000
 40
0.000000
 40
0.435627
 40
0.867650
 40
1.303277
 40
1.738904
 40
2.170927
 40
2.606554
 40
2.606554
 40
2.606554
 40
2.606554
 10
53.096523
 20
48.291736
 30
0.0
 10
53.191657
 20
48.180913
 30
0.0
 10
53.381138
 20
47.960185
 30
0.0
 10
53.544602
 20
47.549786
 30
0.0
 10
53.603683
 20
47.115019
 30
0.0
 10
53.544602
 20
46.680251
 30
0.0
 10
53.381138
 20
46.269852
 30
0.0
 10
53.191657
 20
46.049124
 30
0.0
 10
53.096523
 20
45.938301
 30
0.0
 11
53.096523
 21
48.291736
 31
0.0
 11
53.361593
 21
47.946035
 31
0.0
 11
53.526921
 21
47.546899
 31
0.0
 11
53.583935
 21
47.115019
 31
0.0
 11
53.526921
 21
46.683138
 31
0.0
 11
53.361593
 21
46.284002
 31
0.0
 11
53.096523
 21
45.938301
 31
0.0
  0
LINE
  5
16a
100
AcDbEntity
  8
Calque_2
 62
7
100
AcDbLine
 10
45.868780
 20
41.063993
 30
0.0
 11
45.868780
 21
41.063993
 31
0.0
  0
LINE
  5
16b
100
AcDbEntity
  8
Calque_2
 62
7
100
AcDbLine
 10
93.973198
 20
129.488209
 30
0.0
 11
93.973198
 21
129.579783
 31
0.0
  0
SPLINE
  5
16c
100
AcDbEntity
  8
Calque_2
 62
7
100
AcDbSpline
 70
0
 71
3
 72
13
 73
9
 74
7
 40
0.000000
 40
0.000000
 40
0.000000
 40
0.000000
 40
0.435627
 40
0.867650
 40
1.303277
 40
1.738904
 40
2.170927
 40
2.606554
 40
2.606554
 40
2.606554
 40
2.606554
 10
48.222214
 20
41.063993
 30
0.0
 10
48.111392
 20
40.968859
 30
0.0
 10
47.890664
 20
40.779378
 30
0.0
 10
47.480264
 20
40.615913
 30
0.0
 10
47.045497
 20
40.556833
 30
0.0
 10
46.610730
 20
40.615913
 30
0.0
 10
46.200331
 20
40.779378
 30
0.0
 10
45.979602
 20
40.968859
 30
0.0
 10
45.868780
 20
41.063993
 30
0.0
 11
48.222214
 21
41.063993
 31
0.0
 11
47.876514
 21
40.798922
 31
0.0
 11
47.477377
 21
40.633595
 31
0.0
 11
47.045497
 21
40.576581
 31
0.0
 11
46.613617
 21
40.633595
 31
0.0
 11
46.214480
 21
40.798922
 31
0.0
 11
45.868780
 21
41.063993
 31
0.0
  0
LINE
  5
16d
100
AcDbEntity
  8
Calque_2
 62
7
100
AcDbLine
 10
94.953077
 20
130.559662
 30
0.0
 11
99.012023
 21
130.559662
 31
0.0
  0
SPLINE
  5
16e
100
AcDbEntity
  8
Calque_2
 62
7
100
AcDbSpline
 70
0
 71
3
 72
13
 73
9
 74
7
 40
0.000000
 40
0.000000
 40
0.000000
 40
0.000000
 40
0.256508
 40
0.510893
 40
0.767400
 40
1.023908
 40
1.278293
 40
1.534801
 40
1.534801
 40
1.534801
 40
1.534801
 10
93.973198
 20
129.579783
 30
0.0
 10
93.979730
 20
129.665535
 30
0.0
 10
93.992740
 20
129.836331
 30
0.0
 10
94.095554
 20
130.075265
 30
0.0
 10
94.251976
 20
130.280884
 30
0.0
 10
94.457595
 20
130.437306
 30
0.0
 10
94.696529
 20
130.540120
 30
0.0
 10
94.867325
 20
130.553130
 30
0.0
 10
94.953077
 20
130.559662
 30
0.0
 11
93.973198
 21
129.579783
 31
0.0
 11
94.006769
 21
129.834084
 31
0.0
 11
94.104118
 21
130.069105
 31
0.0
 11
94.260198
 21
130.272662
 31
0.0
 11
94.463755
 21
130.428742
 31
0.0
 11
94.698776
 21
130.526091
 31
0.0
 11
94.953077
 21
130.559662
 31
0.0
  0
LINE
  5
16f
100
AcDbEntity
  8
Calque_2
 62
7
100
AcDbLine
 10
99.991902
 20
129.579783
 30
0.0
 11
99.991902
 21
129.488209
 31
0.0
  0
SPLINE
  5
170
100
AcDbEntity
  8
Calque_2
 62
7
100
AcDbSpline
 70
0
 71
3
 72
13
 73
9
 74
7
 40
0.000000
 40
0.000000
 40
0.000000
 40
0.000000
 40
0.256508
 40
0.510893
 40
0.767400
 40
1.023908
 40
1.278293
 40
1.534801
 40
1.534801
 40
1.534801
 40
1.534801
 10
99.012023
 20
130.559662
 30
0.0
 10
99.097776
 20
130.553130
 30
0.0
 10
99.268571
 20
130.540120
 30
0.0
 10
99.507506
 20
130.437306
 30
0.0
 10
99.713125
 20
130.280884
 30
0.0
 10
99.869546
 20
130.075265
 30
0.0
 10
99.972360
 20
129.836331
 30
0.0
 10
99.985370
 20
129.665535
 30
0.0
 10
99.991902
 20
129.579783
 30
0.0
 11
99.012023
 21
130.559662
 31
0.0
 11
99.266325
 21
130.526091
 31
0.0
 11
99.501346
 21
130.428742
 31
0.0
 11
99.704902
 21
130.272662
 31
0.0
 11
99.860982
 21
130.069105
 31
0.0
 11
99.958331
 21
129.834084
 31
0.0
 11
99.991902
 21
129.579783
 31
0.0
  0
LINE
  5
171
100
AcDbEntity
  8
Calque_2
 62
7
100
AcDbLine
 10
99.012023
 20
128.508330
 30
0.0
 11
94.953077
 21
128.508330
 31
0.0
  0
SPLINE
  5
172
100
AcDbEntity
  8
Calque_2
 62
7
100
AcDbSpline
 70
0
 71
3
 72
13
 73
9
 74
7
 40
0.000000
 40
0.000000
 40
0.000000
 40
0.000000
 40
0.256508
 40
0.510893
 40
0.767400
 40
1.023908
 40
1.278293
 40
1.534801
 40
1.534801
 40
1.534801
 40
1.534801
 10
99.991902
 20
129.488209
 30
0.0
 10
99.985370
 20
129.402457
 30
0.0
 10
99.972360
 20
129.231661
 30
0.0
 10
99.869546
 20
128.992727
 30
0.0
 10
99.713125
 20
128.787108
 30
0.0
 10
99.507506
 20
128.630686
 30
0.0
 10
99.268571
 20
128.527872
 30
0.0
 10
99.097776
 20
128.514862
 30
0.0
 10
99.012023
 20
128.508330
 30
0.0
 11
99.991902
 21
129.488209
 31
0.0
 11
99.958331
 21
129.233908
 31
0.0
 11
99.860982
 21
128.998887
 31
0.0
 11
99.704902
 21
128.795330
 31
0.0
 11
99.501346
 21
128.639250
 31
0.0
 11
99.266325
 21
128.541901
 31
0.0
 11
99.012023
 21
128.508330
 31
0.0
  0
LINE
  5
173
100
AcDbEntity
  8
Calque_2
 62
7
100
AcDbLine
 10
93.973198
 20
129.488209
 30
0.0
 11
93.973198
 21
129.488209
 31
0.0
  0
LINE
  5
174
100
AcDbEntity
  8
Calque_2
 62
7
100
AcDbLine
 10
64.608998
 20
146.834980
 30
0.0
 11
64.827410
 21
147.650105
 31
0.0
  0
SPLINE
  5
175
100
AcDbEntity
  8
Calque_2
 62
7
100
AcDbSpline
 70
0
 71
3
 72
13
 73
9
 74
7
 40
0.000000
 40
0.000000
 40
0.000000
 40
0.000000
 40
0.256508
 40
0.510893
 40
0.767400
 40
1.023908
 40
1.278293
 40
1.534801
 40
1.534801
 40
1.534801
 40
1.534801
 10
94.953077
 20
128.508330
 30
0.0
 10
94.867325
 20
128.514862
 30
0.0
 10
94.696529
 20
128.527872
 30
0.0
 10
94.457595
 20
128.630686
 30
0.0
 10
94.251976
 20
128.787108
 30
0.0
 10
94.095554
 20
128.992727
 30
0.0
 10
93.992740
 20
129.231661
 30
0.0
 10
93.979730
 20
129.402457
 30
0.0
 10
93.973198
 20
129.488209
 30
0.0
 11
94.953077
 21
128.508330
 31
0.0
 11
94.698776
 21
128.541901
 31
0.0
 11
94.463755
 21
128.639250
 31
0.0
 11
94.260198
 21
128.795330
 31
0.0
 11
94.104118
 21
128.998887
 31
0.0
 11
94.006769
 21
129.233908
 31
0.0
 11
93.973198
 21
129.488209
 31
0.0
  0
LINE
  5
176
100
AcDbEntity
  8
Calque_2
 62
7
100
AcDbLine
 10
66.821365
 20
148.801316
 30
0.0
 11
73.335465
 21
147.055868
 31
0.0
  0
SPLINE
  5
177
100
AcDbEntity
  8
Calque_2
 62
7
100
AcDbSpline
 70
0
 71
3
 72
13
 73
9
 74
7
 40
0.000000
 40
0.000000
 40
0.000000
 40
0.000000
 40
0.426185
 40
0.848842
 40
1.275027
 40
1.701211
 40
2.123869
 40
2.550054
 40
2.550054
 40
2.550054
 40
2.550054
 10
64.827410
 20
147.650105
 30
0.0
 10
64.874769
 20
147.784918
 30
0.0
 10
64.969095
 20
148.053428
 30
0.0
 10
65.236846
 20
148.392676
 30
0.0
 10
65.576304
 20
148.655403
 30
0.0
 10
65.973562
 20
148.818019
 30
0.0
 10
66.401235
 20
148.880274
 30
0.0
 10
66.680934
 20
148.827708
 30
0.0
 10
66.821365
 20
148.801316
 30
0.0
 11
64.827410
 21
147.650105
 31
0.0
 11
64.990643
 21
148.043790
 31
0.0
 11
65.247941
 21
148.379107
 31
0.0
 11
65.585964
 21
148.638672
 31
0.0
 11
65.979765
 21
148.801626
 31
0.0
 11
66.398807
 21
148.856794
 31
0.0
 11
66.821365
 21
148.801316
 31
0.0
  0
LINE
  5
178
100
AcDbEntity
  8
Calque_2
 62
7
100
AcDbLine
 10
74.486676
 20
145.061913
 30
0.0
 11
74.268264
 21
144.246787
 31
0.0
  0
SPLINE
  5
179
100
AcDbEntity
  8
Calque_2
 62
7
100
AcDbSpline
 70
0
 71
3
 72
13
 73
9
 74
7
 40
0.000000
 40
0.000000
 40
0.000000
 40
0.000000
 40
0.426185
 40
0.848842
 40
1.275027
 40
1.701211
 40
2.123869
 40
2.550054
 40
2.550054
 40
2.550054
 40
2.550054
 10
73.335465
 20
147.055868
 30
0.0
 10
73.470278
 20
147.008509
 30
0.0
 10
73.738788
 20
146.914183
 30
0.0
 10
74.078036
 20
146.646431
 30
0.0
 10
74.340764
 20
146.306974
 30
0.0
 10
74.503379
 20
145.909716
 30
0.0
 10
74.565635
 20
145.482043
 30
0.0
 10
74.513068
 20
145.202343
 30
0.0
 10
74.486676
 20
145.061913
 30
0.0
 11
73.335465
 21
147.055868
 31
0.0
 11
73.729151
 21
146.892634
 31
0.0
 11
74.064468
 21
146.635336
 31
0.0
 11
74.324032
 21
146.297314
 31
0.0
 11
74.486986
 21
145.903513
 31
0.0
 11
74.542154
 21
145.484471
 31
0.0
 11
74.486676
 21
145.061913
 31
0.0
  0
LINE
  5
17a
100
AcDbEntity
  8
Calque_2
 62
7
100
AcDbLine
 10
72.274309
 20
143.095577
 30
0.0
 11
65.760208
 21
144.841025
 31
0.0
  0
SPLINE
  5
17b
100
AcDbEntity
  8
Calque_2
 62
7
100
AcDbSpline
 70
0
 71
3
 72
13
 73
9
 74
7
 40
0.000000
 40
0.000000
 40
0.000000
 40
0.000000
 40
0.426185
 40
0.848842
 40
1.275027
 40
1.701211
 40
2.123869
 40
2.550054
 40
2.550054
 40
2.550054
 40
2.550054
 10
74.268264
 20
144.246787
 30
0.0
 10
74.220905
 20
144.111974
 30
0.0
 10
74.126579
 20
143.843464
 30
0.0
 10
73.858828
 20
143.504217
 30
0.0
 10
73.519370
 20
143.241489
 30
0.0
 10
73.122112
 20
143.078874
 30
0.0
 10
72.694439
 20
143.016618
 30
0.0
 10
72.414739
 20
143.069184
 30
0.0
 10
72.274309
 20
143.095577
 30
0.0
 11
74.268264
 21
144.246787
 31
0.0
 11
74.105030
 21
143.853102
 31
0.0
 11
73.847733
 21
143.517785
 31
0.0
 11
73.509710
 21
143.258220
 31
0.0
 11
73.115909
 21
143.095266
 31
0.0
 11
72.696867
 21
143.040098
 31
0.0
 11
72.274309
 21
143.095577
 31
0.0
  0
LINE
  5
17c
100
AcDbEntity
  8
Calque_2
 62
7
100
AcDbLine
 10
64.608998
 20
146.834980
 30
0.0
 11
64.608998
 21
146.834980
 31
0.0
  0
LINE
  5
17d
100
AcDbEntity
  8
Calque_2
 62
7
100
AcDbLine
 10
46.306512
 20
176.738512
 30
0.0
 11
47.640657
 21
179.049319
 31
0.0
  0
SPLINE
  5
17e
100
AcDbEntity
  8
Calque_2
 62
7
100
AcDbSpline
 70
0
 71
3
 72
13
 73
9
 74
7
 40
0.000000
 40
0.000000
 40
0.000000
 40
0.000000
 40
0.426185
 40
0.848842
 40
1.275027
 40
1.701211
 40
2.123869
 40
2.550054
 40
2.550054
 40
2.550054
 40
2.550054
 10
65.760208
 20
144.841025
 30
0.0
 10
65.625395
 20
144.888384
 30
0.0
 10
65.356885
 20
144.982709
 30
0.0
 10
65.017638
 20
145.250461
 30
0.0
 10
64.754910
 20
145.589919
 30
0.0
 10
64.592295
 20
145.987177
 30
0.0
 10
64.530039
 20
146.414850
 30
0.0
 10
64.582605
 20
146.694549
 30
0.0
 10
64.608998
 20
146.834980
 30
0.0
 11
65.760208
 21
144.841025
 31
0.0
 11
65.366523
 21
145.004258
 31
0.0
 11
65.031206
 21
145.261556
 31
0.0
 11
64.771641
 21
145.599579
 31
0.0
 11
64.608687
 21
145.993380
 31
0.0
 11
64.553519
 21
146.412422
 31
0.0
 11
64.608998
 21
146.834980
 31
0.0
  0
LINE
  5
17f
100
AcDbEntity
  8
Calque_2
 62
7
100
AcDbLine
 10
49.955955
 20
179.669701
 30
0.0
 11
56.036181
 21
176.159282
 31
0.0
  0
SPLINE
  5
180
100
AcDbEntity
  8
Calque_2
 62
7
100
AcDbSpline
 70
0
 71
3
 72
13
 73
9
 74
7
 40
0.000000
 40
0.000000
 40
0.000000
 40
0.000000
 40
0.443686
 40
0.883701
 40
1.327388
 40
1.771074
 40
2.211089
 40
2.654775
 40
2.654775
 40
2.654775
 40
2.654775
 10
47.640657
 20
179.049319
 30
0.0
 10
47.724606
 20
179.172125
 30
0.0
 10
47.891809
 20
179.416721
 30
0.0
 10
48.252467
 20
179.685721
 30
0.0
 10
48.664615
 20
179.858452
 30
0.0
 10
49.107911
 20
179.914936
 30
0.0
 10
49.554751
 20
179.862305
 30
0.0
 10
49.821851
 20
179.734080
 30
0.0
 10
49.955955
 20
179.669701
 30
0.0
 11
47.640657
 21
179.049319
 31
0.0
 11
47.910881
 21
179.401223
 31
0.0
 11
48.259968
 21
179.669087
 31
0.0
 11
48.669821
 21
179.839024
 31
0.0
 11
49.109732
 21
179.896781
 31
0.0
 11
49.545982
 21
179.839347
 31
0.0
 11
49.955955
 21
179.669701
 31
0.0
  0
LINE
  5
181
100
AcDbEntity
  8
Calque_2
 62
7
100
AcDbLine
 10
56.656563
 20
173.843983
 30
0.0
 11
55.322418
 21
171.533176
 31
0.0
  0
SPLINE
  5
182
100
AcDbEntity
  8
Calque_2
 62
7
100
AcDbSpline
 70
0
 71
3
 72
13
 73
9
 74
7
 40
0.000000
 40
0.000000
 40
0.000000
 40
0.000000
 40
0.443686
 40
0.883701
 40
1.327388
 40
1.771074
 40
2.211089
 40
2.654775
 40
2.654775
 40
2.654775
 40
2.654775
 10
56.036181
 20
176.159282
 30
0.0
 10
56.158987
 20
176.075333
 30
0.0
 10
56.403583
 20
175.908130
 30
0.0
 10
56.672583
 20
175.547471
 30
0.0
 10
56.845314
 20
175.135324
 30
0.0
 10
56.901798
 20
174.692028
 30
0.0
 10
56.849166
 20
174.245188
 30
0.0
 10
56.720942
 20
173.978088
 30
0.0
 10
56.656563
 20
173.843983
 30
0.0
 11
56.036181
 21
176.159282
 31
0.0
 11
56.388085
 21
175.889058
 31
0.0
 11
56.655949
 21
175.539970
 31
0.0
 11
56.825886
 21
175.130118
 31
0.0
 11
56.883642
 21
174.690207
 31
0.0
 11
56.826209
 21
174.253956
 31
0.0
 11
56.656563
 21
173.843983
 31
0.0
  0
LINE
  5
183
100
AcDbEntity
  8
Calque_2
 62
7
100
AcDbLine
 10
53.007119
 20
170.912794
 30
0.0
 11
46.926894
 21
174.423213
 31
0.0
  0
SPLINE
  5
184
100
AcDbEntity
  8
Calque_2
 62
7
100
AcDbSpline
 70
0
 71
3
 72
10
 73
6
 74
4
 40
0.000000
 40
0.000000
 40
0.000000
 40
0.000000
 40
0.886202
 40
1.746120
 40
2.632322
 40
2.632322
 40
2.632322
 40
2.632322
 10
55.322418
 20
171.533176
 30
0.0
 10
55.133548
 20
171.299282
 30
0.0
 10
54.761410
 20
170.838431
 30
0.0
 10
53.840338
 20
170.591631
 30
0.0
 10
53.287632
 20
170.804670
 30
0.0
 10
53.007119
 20
170.912794
 30
0.0
 11
55.322418
 21
171.533176
 31
0.0
 11
54.694286
 21
170.908032
 31
0.0
 11
53.863669
 21
170.685469
 31
0.0
 11
53.007119
 21
170.912794
 31
0.0
  0
LINE
  5
185
100
AcDbEntity
  8
Calque_2
 62
7
100
AcDbLine
 10
46.306512
 20
176.738512
 30
0.0
 11
46.306512
 21
176.738512
 31
0.0
  0
LINE
  5
186
100
AcDbEntity
  8
Calque_2
 62
7
100
AcDbLine
 10
42.039174
 20
214.683170
 30
0.0
 11
45.537339
 21
218.181335
 31
0.0
  0
SPLINE
  5
187
100
AcDbEntity
  8
Calque_2
 62
7
100
AcDbSpline
 70
0
 71
3
 72
10
 73
6
 74
4
 40
0.000000
 40
0.000000
 40
0.000000
 40
0.000000
 40
0.886202
 40
1.746120
 40
2.632322
 40
2.632322
 40
2.632322
 40
2.632322
 10
46.926894
 20
174.423213
 30
0.0
 10
46.693000
 20
174.612083
 30
0.0
 10
46.232149
 20
174.984221
 30
0.0
 10
45.985349
 20
175.905293
 30
0.0
 10
46.198389
 20
176.457999
 30
0.0
 10
46.306512
 20
176.738512
 30
0.0
 11
46.926894
 21
174.423213
 31
0.0
 11
46.301750
 21
175.051345
 31
0.0
 11
46.079187
 21
175.881962
 31
0.0
 11
46.306512
 21
176.738512
 31
0.0
  0
LINE
  5
188
100
AcDbEntity
  8
Calque_2
 62
7
100
AcDbLine
 10
47.890774
 20
218.181335
 30
0.0
 11
52.765082
 21
213.307027
 31
0.0
  0
SPLINE
  5
189
100
AcDbEntity
  8
Calque_2
 62
7
100
AcDbSpline
 70
0
 71
3
 72
13
 73
9
 74
7
 40
0.000000
 40
0.000000
 40
0.000000
 40
0.000000
 40
0.435627
 40
0.867650
 40
1.303277
 40
1.738904
 40
2.170927
 40
2.606554
 40
2.606554
 40
2.606554
 40
2.606554
 10
45.537339
 20
218.181335
 30
0.0
 10
45.648162
 20
218.276469
 30
0.0
 10
45.868890
 20
218.465950
 30
0.0
 10
46.279290
 20
218.629415
 30
0.0
 10
46.714057
 20
218.688495
 30
0.0
 10
47.148824
 20
218.629415
 30
0.0
 10
47.559223
 20
218.465950
 30
0.0
 10
47.779951
 20
218.276469
 30
0.0
 10
47.890774
 20
218.181335
 30
0.0
 11
45.537339
 21
218.181335
 31
0.0
 11
45.883040
 21
218.446406
 31
0.0
 11
46.282176
 21
218.611734
 31
0.0
 11
46.714057
 21
218.668747
 31
0.0
 11
47.145937
 21
218.611734
 31
0.0
 11
47.545074
 21
218.446406
 31
0.0
 11
47.890774
 21
218.181335
 31
0.0
  0
LINE
  5
18a
100
AcDbEntity
  8
Calque_2
 62
7
100
AcDbLine
 10
52.765082
 20
210.953592
 30
0.0
 11
49.266917
 21
207.455427
 31
0.0
  0
SPLINE
  5
18b
100
AcDbEntity
  8
Calque_2
 62
7
100
AcDbSpline
 70
0
 71
3
 72
13
 73
9
 74
7
 40
0.000000
 40
0.000000
 40
0.000000
 40
0.000000
 40
0.435627
 40
0.867650
 40
1.303277
 40
1.738904
 40
2.170927
 40
2.606554
 40
2.606554
 40
2.606554
 40
2.606554
 10
52.765082
 20
213.307027
 30
0.0
 10
52.860216
 20
213.196204
 30
0.0
 10
53.049697
 20
212.975476
 30
0.0
 10
53.213162
 20
212.565077
 30
0.0
 10
53.272243
 20
212.130310
 30
0.0
 10
53.213162
 20
211.695543
 30
0.0
 10
53.049697
 20
211.285143
 30
0.0
 10
52.860216
 20
211.064415
 30
0.0
 10
52.765082
 20
210.953592
 30
0.0
 11
52.765082
 21
213.307027
 31
0.0
 11
53.030153
 21
212.961326
 31
0.0
 11
53.195481
 21
212.562190
 31
0.0
 11
53.252495
 21
212.130310
 31
0.0
 11
53.195481
 21
211.698429
 31
0.0
 11
53.030153
 21
211.299293
 31
0.0
 11
52.765082
 21
210.953592
 31
0.0
  0
LINE
  5
18c
100
AcDbEntity
  8
Calque_2
 62
7
100
AcDbLine
 10
46.913483
 20
207.455427
 30
0.0
 11
42.039174
 21
212.329736
 31
0.0
  0
SPLINE
  5
18d
100
AcDbEntity
  8
Calque_2
 62
7
100
AcDbSpline
 70
0
 71
3
 72
13
 73
9
 74
7
 40
0.000000
 40
0.000000
 40
0.000000
 40
0.000000
 40
0.435627
 40
0.867650
 40
1.303277
 40
1.738904
 40
2.170927
 40
2.606554
 40
2.606554
 40
2.606554
 40
2.606554
 10
49.266917
 20
207.455427
 30
0.0
 10
49.156095
 20
207.360293
 30
0.0
 10
48.935366
 20
207.170812
 30
0.0
 10
48.524967
 20
207.007347
 30
0.0
 10
48.090200
 20
206.948267
 30
0.0
 10
47.655433
 20
207.007347
 30
0.0
 10
47.245033
 20
207.170812
 30
0.0
 10
47.024305
 20
207.360293
 30
0.0
 10
46.913483
 20
207.455427
 30
0.0
 11
49.266917
 21
207.455427
 31
0.0
 11
48.921217
 21
207.190357
 31
0.0
 11
48.522080
 21
207.025029
 31
0.0
 11
48.090200
 21
206.968015
 31
0.0
 11
47.658320
 21
207.025029
 31
0.0
 11
47.259183
 21
207.190357
 31
0.0
 11
46.913483
 21
207.455427
 31
0.0
  0
LINE
  5
18e
100
AcDbEntity
  8
Calque_2
 62
7
100
AcDbLine
 10
42.039174
 20
214.683170
 30
0.0
 11
42.039174
 21
214.683170
 31
0.0
  0
LINE
  5
18f
100
AcDbEntity
  8
Calque_2
 62
7
100
AcDbLine
 10
167.553910
 20
130.088571
 30
0.0
 11
167.553910
 21
129.996997
 31
0.0
  0
SPLINE
  5
190
100
AcDbEntity
  8
Calque_2
 62
7
100
AcDbSpline
 70
0
 71
3
 72
13
 73
9
 74
7
 40
0.000000
 40
0.000000
 40
0.000000
 40
0.000000
 40
0.435627
 40
0.867650
 40
1.303277
 40
1.738904
 40
2.170927
 40
2.606554
 40
2.606554
 40
2.606554
 40
2.606554
 10
42.039174
 20
212.329736
 30
0.0
 10
41.944040
 20
212.440558
 30
0.0
 10
41.754559
 20
212.661286
 30
0.0
 10
41.591095
 20
213.071686
 30
0.0
 10
41.532014
 20
213.506453
 30
0.0
 10
41.591095
 20
213.941220
 30
0.0
 10
41.754559
 20
214.351619
 30
0.0
 10
41.944040
 20
214.572347
 30
0.0
 10
42.039174
 20
214.683170
 30
0.0
 11
42.039174
 21
212.329736
 31
0.0
 11
41.774104
 21
212.675436
 31
0.0
 11
41.608776
 21
213.074573
 31
0.0
 11
41.551762
 21
213.506453
 31
0.0
 11
41.608776
 21
213.938333
 31
0.0
 11
41.774104
 21
214.337470
 31
0.0
 11
42.039174
 21
214.683170
 31
0.0
  0
LINE
  5
191
100
AcDbEntity
  8
Calque_2
 62
7
100
AcDbLine
 10
166.574031
 20
129.017118
 30
0.0
 11
162.515085
 21
129.017118
 31
0.0
  0
SPLINE
  5
192
100
AcDbEntity
  8
Calque_2
 62
7
100
AcDbSpline
 70
0
 71
3
 72
13
 73
9
 74
7
 40
0.000000
 40
0.000000
 40
0.000000
 40
0.000000
 40
0.256508
 40
0.510893
 40
0.767400
 40
1.023908
 40
1.278293
 40
1.534801
 40
1.534801
 40
1.534801
 40
1.534801
 10
167.553910
 20
129.996997
 30
0.0
 10
167.547378
 20
129.911245
 30
0.0
 10
167.534368
 20
129.740449
 30
0.0
 10
167.431554
 20
129.501515
 30
0.0
 10
167.275132
 20
129.295896
 30
0.0
 10
167.069513
 20
129.139474
 30
0.0
 10
166.830579
 20
129.036660
 30
0.0
 10
166.659783
 20
129.023650
 30
0.0
 10
166.574031
 20
129.017118
 30
0.0
 11
167.553910
 21
129.996997
 31
0.0
 11
167.520339
 21
129.742696
 31
0.0
 11
167.422990
 21
129.507675
 31
0.0
 11
167.266910
 21
129.304118
 31
0.0
 11
167.063353
 21
129.148038
 31
0.0
 11
166.828332
 21
129.050689
 31
0.0
 11
166.574031
 21
129.017118
 31
0.0
  0
LINE
  5
193
100
AcDbEntity
  8
Calque_2
 62
7
100
AcDbLine
 10
161.535206
 20
129.996997
 30
0.0
 11
161.535206
 21
130.088571
 31
0.0
  0
SPLINE
  5
194
100
AcDbEntity
  8
Calque_2
 62
7
100
AcDbSpline
 70
0
 71
3
 72
13
 73
9
 74
7
 40
0.000000
 40
0.000000
 40
0.000000
 40
0.000000
 40
0.256508
 40
0.510893
 40
0.767400
 40
1.023908
 40
1.278293
 40
1.534801
 40
1.534801
 40
1.534801
 40
1.534801
 10
162.515085
 20
129.017118
 30
0.0
 10
162.429332
 20
129.023650
 30
0.0
 10
162.258537
 20
129.036660
 30
0.0
 10
162.019602
 20
129.139474
 30
0.0
 10
161.813983
 20
129.295896
 30
0.0
 10
161.657562
 20
129.501515
 30
0.0
 10
161.554748
 20
129.740449
 30
0.0
 10
161.541738
 20
129.911245
 30
0.0
 10
161.535206
 20
129.996997
 30
0.0
 11
162.515085
 21
129.017118
 31
0.0
 11
162.260783
 21
129.050689
 31
0.0
 11
162.025762
 21
129.148038
 31
0.0
 11
161.822206
 21
129.304118
 31
0.0
 11
161.666126
 21
129.507675
 31
0.0
 11
161.568777
 21
129.742696
 31
0.0
 11
161.535206
 21
129.996997
 31
0.0
  0
LINE
  5
195
100
AcDbEntity
  8
Calque_2
 62
7
100
AcDbLine
 10
162.515085
 20
131.068450
 30
0.0
 11
166.574031
 21
131.068450
 31
0.0
  0
SPLINE
  5
196
100
AcDbEntity
  8
Calque_2
 62
7
100
AcDbSpline
 70
0
 71
3
 72
13
 73
9
 74
7
 40
0.000000
 40
0.000000
 40
0.000000
 40
0.000000
 40
0.256508
 40
0.510893
 40
0.767400
 40
1.023908
 40
1.278293
 40
1.534801
 40
1.534801
 40
1.534801
 40
1.534801
 10
161.535206
 20
130.088571
 30
0.0
 10
161.541738
 20
130.174323
 30
0.0
 10
161.554748
 20
130.345119
 30
0.0
 10
161.657562
 20
130.584053
 30
0.0
 10
161.813983
 20
130.789672
 30
0.0
 10
162.019602
 20
130.946094
 30
0.0
 10
162.258537
 20
131.048908
 30
0.0
 10
162.429332
 20
131.061918
 30
0.0
 10
162.515085
 20
131.068450
 30
0.0
 11
161.535206
 21
130.088571
 31
0.0
 11
161.568777
 21
130.342872
 31
0.0
 11
161.666126
 21
130.577893
 31
0.0
 11
161.822206
 21
130.781450
 31
0.0
 11
162.025762
 21
130.937530
 31
0.0
 11
162.260783
 21
131.034879
 31
0.0
 11
162.515085
 21
131.068450
 31
0.0
  0
LINE
  5
197
100
AcDbEntity
  8
Calque_2
 62
7
100
AcDbLine
 10
167.553910
 20
130.088571
 30
0.0
 11
167.553910
 21
130.088571
 31
0.0
  0
LINE
  5
198
100
AcDbEntity
  8
Calque_2
 62
7
100
AcDbLine
 10
196.918117
 20
112.741804
 30
0.0
 11
196.699704
 21
111.926679
 31
0.0
  0
SPLINE
  5
199
100
AcDbEntity
  8
Calque_2
 62
7
100
AcDbSpline
 70
0
 71
3
 72
13
 73
9
 74
7
 40
0.000000
 40
0.000000
 40
0.000000
 40
0.000000
 40
0.256508
 40
0.510893
 40
0.767400
 40
1.023908
 40
1.278293
 40
1.534801
 40
1.534801
 40
1.534801
 40
1.534801
 10
166.574031
 20
131.068450
 30
0.0
 10
166.659783
 20
131.061918
 30
0.0
 10
166.830579
 20
131.048908
 30
0.0
 10
167.069513
 20
130.946094
 30
0.0
 10
167.275132
 20
130.789672
 30
0.0
 10
167.431554
 20
130.584053
 30
0.0
 10
167.534368
 20
130.345119
 30
0.0
 10
167.547378
 20
130.174323
 30
0.0
 10
167.553910
 20
130.088571
 30
0.0
 11
166.574031
 21
131.068450
 31
0.0
 11
166.828332
 21
131.034879
 31
0.0
 11
167.063353
 21
130.937530
 31
0.0
 11
167.266910
 21
130.781450
 31
0.0
 11
167.422990
 21
130.577893
 31
0.0
 11
167.520339
 21
130.342872
 31
0.0
 11
167.553910
 21
130.088571
 31
0.0
  0
LINE
  5
19a
100
AcDbEntity
  8
Calque_2
 62
7
100
AcDbLine
 10
194.705749
 20
110.775469
 30
0.0
 11
188.191649
 21
112.520917
 31
0.0
  0
SPLINE
  5
19b
100
AcDbEntity
  8
Calque_2
 62
7
100
AcDbSpline
 70
0
 71
3
 72
10
 73
6
 74
4
 40
0.000000
 40
0.000000
 40
0.000000
 40
0.000000
 40
0.851245
 40
1.677242
 40
2.528487
 40
2.528487
 40
2.528487
 40
2.528487
 10
196.699704
 20
111.926679
 30
0.0
 10
196.582615
 20
111.662712
 30
0.0
 10
196.351909
 20
111.142607
 30
0.0
 10
195.558674
 20
110.684632
 30
0.0
 10
194.992896
 20
110.744887
 30
0.0
 10
194.705749
 20
110.775469
 30
0.0
 11
196.699704
 21
111.926679
 31
0.0
 11
196.272326
 21
111.190496
 31
0.0
 11
195.556992
 21
110.777498
 31
0.0
 11
194.705749
 21
110.775469
 31
0.0
  0
LINE
  5
19c
100
AcDbEntity
  8
Calque_2
 62
7
100
AcDbLine
 10
187.040438
 20
114.514872
 30
0.0
 11
187.258851
 21
115.329997
 31
0.0
  0
SPLINE
  5
19d
100
AcDbEntity
  8
Calque_2
 62
7
100
AcDbSpline
 70
0
 71
3
 72
10
 73
6
 74
4
 40
0.000000
 40
0.000000
 40
0.000000
 40
0.000000
 40
0.851245
 40
1.677242
 40
2.528487
 40
2.528487
 40
2.528487
 40
2.528487
 10
188.191649
 20
112.520917
 30
0.0
 10
187.927682
 20
112.638006
 30
0.0
 10
187.407576
 20
112.868712
 30
0.0
 10
186.949602
 20
113.661947
 30
0.0
 10
187.009857
 20
114.227725
 30
0.0
 10
187.040438
 20
114.514872
 30
0.0
 11
188.191649
 21
112.520917
 31
0.0
 11
187.455466
 21
112.948295
 31
0.0
 11
187.042467
 21
113.663629
 31
0.0
 11
187.040438
 21
114.514872
 31
0.0
  0
LINE
  5
19e
100
AcDbEntity
  8
Calque_2
 62
7
100
AcDbLine
 10
189.252806
 20
116.481207
 30
0.0
 11
195.766906
 21
114.735759
 31
0.0
  0
SPLINE
  5
19f
100
AcDbEntity
  8
Calque_2
 62
7
100
AcDbSpline
 70
0
 71
3
 72
13
 73
9
 74
7
 40
0.000000
 40
0.000000
 40
0.000000
 40
0.000000
 40
0.426185
 40
0.848842
 40
1.275027
 40
1.701211
 40
2.123869
 40
2.550054
 40
2.550054
 40
2.550054
 40
2.550054
 10
187.258851
 20
115.329997
 30
0.0
 10
187.306209
 20
115.464810
 30
0.0
 10
187.400535
 20
115.733320
 30
0.0
 10
187.668287
 20
116.072568
 30
0.0
 10
188.007745
 20
116.335295
 30
0.0
 10
188.405002
 20
116.497911
 30
0.0
 10
188.832675
 20
116.560166
 30
0.0
 10
189.112375
 20
116.507600
 30
0.0
 10
189.252806
 20
116.481207
 30
0.0
 11
187.258851
 21
115.329997
 31
0.0
 11
187.422084
 21
115.723682
 31
0.0
 11
187.679382
 21
116.058999
 31
0.0
 11
188.017405
 21
116.318564
 31
0.0
 11
188.411206
 21
116.481518
 31
0.0
 11
188.830247
 21
116.536686
 31
0.0
 11
189.252806
 21
116.481207
 31
0.0
  0
LINE
  5
1a0
100
AcDbEntity
  8
Calque_2
 62
7
100
AcDbLine
 10
196.918117
 20
112.741804
 30
0.0
 11
196.918117
 21
112.741804
 31
0.0
  0
LINE
  5
1a1
100
AcDbEntity
  8
Calque_2
 62
7
100
AcDbLine
 10
215.220579
 20
82.838278
 30
0.0
 11
213.886434
 21
80.527471
 31
0.0
  0
SPLINE
  5
1a2
100
AcDbEntity
  8
Calque_2
 62
7
100
AcDbSpline
 70
0
 71
3
 72
13
 73
9
 74
7
 40
0.000000
 40
0.000000
 40
0.000000
 40
0.000000
 40
0.426185
 40
0.848842
 40
1.275027
 40
1.701211
 40
2.123869
 40
2.550054
 40
2.550054
 40
2.550054
 40
2.550054
 10
195.766906
 20
114.735759
 30
0.0
 10
195.901719
 20
114.688400
 30
0.0
 10
196.170229
 20
114.594075
 30
0.0
 10
196.509477
 20
114.326323
 30
0.0
 10
196.772204
 20
113.986865
 30
0.0
 10
196.934820
 20
113.589607
 30
0.0
 10
196.997075
 20
113.161935
 30
0.0
 10
196.944509
 20
112.882235
 30
0.0
 10
196.918117
 20
112.741804
 30
0.0
 11
195.766906
 21
114.735759
 31
0.0
 11
196.160591
 21
114.572526
 31
0.0
 11
196.495908
 21
114.315228
 31
0.0
 11
196.755473
 21
113.977205
 31
0.0
 11
196.918427
 21
113.583404
 31
0.0
 11
196.973595
 21
113.164362
 31
0.0
 11
196.918117
 21
112.741804
 31
0.0
  0
LINE
  5
1a3
100
AcDbEntity
  8
Calque_2
 62
7
100
AcDbLine
 10
211.571136
 20
79.907089
 30
0.0
 11
205.490911
 21
83.417508
 31
0.0
  0
SPLINE
  5
1a4
100
AcDbEntity
  8
Calque_2
 62
7
100
AcDbSpline
 70
0
 71
3
 72
13
 73
9
 74
7
 40
0.000000
 40
0.000000
 40
0.000000
 40
0.000000
 40
0.443686
 40
0.883701
 40
1.327388
 40
1.771074
 40
2.211089
 40
2.654775
 40
2.654775
 40
2.654775
 40
2.654775
 10
213.886434
 20
80.527471
 30
0.0
 10
213.802485
 20
80.404665
 30
0.0
 10
213.635283
 20
80.160069
 30
0.0
 10
213.274624
 20
79.891069
 30
0.0
 10
212.862476
 20
79.718338
 30
0.0
 10
212.419180
 20
79.661853
 30
0.0
 10
211.972341
 20
79.714485
 30
0.0
 10
211.705241
 20
79.842710
 30
0.0
 10
211.571136
 20
79.907089
 30
0.0
 11
213.886434
 21
80.527471
 31
0.0
 11
213.616210
 21
80.175567
 31
0.0
 11
213.267123
 21
79.907703
 31
0.0
 11
212.857270
 21
79.737766
 31
0.0
 11
212.417359
 21
79.680009
 31
0.0
 11
211.981109
 21
79.737443
 31
0.0
 11
211.571136
 21
79.907089
 31
0.0
  0
LINE
  5
1a5
100
AcDbEntity
  8
Calque_2
 62
7
100
AcDbLine
 10
204.870529
 20
85.732807
 30
0.0
 11
206.204674
 21
88.043614
 31
0.0
  0
SPLINE
  5
1a6
100
AcDbEntity
  8
Calque_2
 62
7
100
AcDbSpline
 70
0
 71
3
 72
13
 73
9
 74
7
 40
0.000000
 40
0.000000
 40
0.000000
 40
0.000000
 40
0.443686
 40
0.883701
 40
1.327388
 40
1.771074
 40
2.211089
 40
2.654775
 40
2.654775
 40
2.654775
 40
2.654775
 10
205.490911
 20
83.417508
 30
0.0
 10
205.368105
 20
83.501457
 30
0.0
 10
205.123509
 20
83.668660
 30
0.0
 10
204.854509
 20
84.029319
 30
0.0
 10
204.681778
 20
84.441466
 30
0.0
 10
204.625293
 20
84.884762
 30
0.0
 10
204.677925
 20
85.331602
 30
0.0
 10
204.806150
 20
85.598702
 30
0.0
 10
204.870529
 20
85.732807
 30
0.0
 11
205.490911
 21
83.417508
 31
0.0
 11
205.139007
 21
83.687732
 31
0.0
 11
204.871143
 21
84.036820
 31
0.0
 11
204.701206
 21
84.446672
 31
0.0
 11
204.643449
 21
84.886583
 31
0.0
 11
204.700883
 21
85.322834
 31
0.0
 11
204.870529
 21
85.732807
 31
0.0
  0
LINE
  5
1a7
100
AcDbEntity
  8
Calque_2
 62
7
100
AcDbLine
 10
208.519972
 20
88.663996
 30
0.0
 11
214.600197
 21
85.153576
 31
0.0
  0
SPLINE
  5
1a8
100
AcDbEntity
  8
Calque_2
 62
7
100
AcDbSpline
 70
0
 71
3
 72
13
 73
9
 74
7
 40
0.000000
 40
0.000000
 40
0.000000
 40
0.000000
 40
0.443686
 40
0.883701
 40
1.327388
 40
1.771074
 40
2.211089
 40
2.654775
 40
2.654775
 40
2.654775
 40
2.654775
 10
206.204674
 20
88.043614
 30
0.0
 10
206.288623
 20
88.166420
 30
0.0
 10
206.455825
 20
88.411016
 30
0.0
 10
206.816484
 20
88.680016
 30
0.0
 10
207.228632
 20
88.852747
 30
0.0
 10
207.671928
 20
88.909231
 30
0.0
 10
208.118767
 20
88.856600
 30
0.0
 10
208.385867
 20
88.728375
 30
0.0
 10
208.519972
 20
88.663996
 30
0.0
 11
206.204674
 21
88.043614
 31
0.0
 11
206.474898
 21
88.395518
 31
0.0
 11
206.823985
 21
88.663382
 31
0.0
 11
207.233838
 21
88.833319
 31
0.0
 11
207.673749
 21
88.891076
 31
0.0
 11
208.109999
 21
88.833642
 31
0.0
 11
208.519972
 21
88.663996
 31
0.0
  0
LINE
  5
1a9
100
AcDbEntity
  8
Calque_2
 62
7
100
AcDbLine
 10
215.220579
 20
82.838278
 30
0.0
 11
215.220579
 21
82.838278
 31
0.0
  0
LINE
  5
1aa
100
AcDbEntity
  8
Calque_2
 62
7
100
AcDbLine
 10
219.487945
 20
44.893612
 30
0.0
 11
215.989780
 21
41.395447
 31
0.0
  0
SPLINE
  5
1ab
100
AcDbEntity
  8
Calque_2
 62
7
100
AcDbSpline
 70
0
 71
3
 72
13
 73
9
 74
7
 40
0.000000
 40
0.000000
 40
0.000000
 40
0.000000
 40
0.443686
 40
0.883701
 40
1.327388
 40
1.771074
 40
2.211089
 40
2.654775
 40
2.654775
 40
2.654775
 40
2.654775
 10
214.600197
 20
85.153576
 30
0.0
 10
214.723003
 20
85.069628
 30
0.0
 10
214.967599
 20
84.902425
 30
0.0
 10
215.236599
 20
84.541766
 30
0.0
 10
215.409330
 20
84.129618
 30
0.0
 10
215.465815
 20
83.686323
 30
0.0
 10
215.413183
 20
83.239483
 30
0.0
 10
215.284958
 20
82.972383
 30
0.0
 10
215.220579
 20
82.838278
 30
0.0
 11
214.600197
 21
85.153576
 31
0.0
 11
214.952101
 21
84.883352
 31
0.0
 11
215.219965
 21
84.534265
 31
0.0
 11
215.389902
 21
84.124413
 31
0.0
 11
215.447659
 21
83.684502
 31
0.0
 11
215.390225
 21
83.248251
 31
0.0
 11
215.220579
 21
82.838278
 31
0.0
  0
LINE
  5
1ac
100
AcDbEntity
  8
Calque_2
 62
7
100
AcDbLine
 10
213.636346
 20
41.395447
 30
0.0
 11
208.762037
 21
46.269756
 31
0.0
  0
SPLINE
  5
1ad
100
AcDbEntity
  8
Calque_2
 62
7
100
AcDbSpline
 70
0
 71
3
 72
10
 73
6
 74
4
 40
0.000000
 40
0.000000
 40
0.000000
 40
0.000000
 40
0.870105
 40
1.714404
 40
2.584509
 40
2.584509
 40
2.584509
 40
2.584509
 10
215.989780
 20
41.395447
 30
0.0
 10
215.751223
 20
41.221622
 30
0.0
 10
215.281185
 20
40.879126
 30
0.0
 10
214.344941
 20
40.879126
 30
0.0
 10
213.874903
 20
41.221622
 30
0.0
 10
213.636346
 20
41.395447
 30
0.0
 11
215.989780
 21
41.395447
 31
0.0
 11
215.235212
 21
40.962192
 31
0.0
 11
214.390914
 21
40.962192
 31
0.0
 11
213.636346
 21
41.395447
 31
0.0
  0
LINE
  5
1ae
100
AcDbEntity
  8
Calque_2
 62
7
100
AcDbLine
 10
208.762037
 20
48.623190
 30
0.0
 11
212.260203
 21
52.121355
 31
0.0
  0
SPLINE
  5
1af
100
AcDbEntity
  8
Calque_2
 62
7
100
AcDbSpline
 70
0
 71
3
 72
10
 73
6
 74
4
 40
0.000000
 40
0.000000
 40
0.000000
 40
0.000000
 40
0.870105
 40
1.714404
 40
2.584509
 40
2.584509
 40
2.584509
 40
2.584509
 10
208.762037
 20
46.269756
 30
0.0
 10
208.588212
 20
46.508313
 30
0.0
 10
208.245717
 20
46.978351
 30
0.0
 10
208.245717
 20
47.914594
 30
0.0
 10
208.588212
 20
48.384633
 30
0.0
 10
208.762037
 20
48.623190
 30
0.0
 11
208.762037
 21
46.269756
 31
0.0
 11
208.328782
 21
47.024324
 31
0.0
 11
208.328782
 21
47.868622
 31
0.0
 11
208.762037
 21
48.623190
 31
0.0
  0
LINE
  5
1b0
100
AcDbEntity
  8
Calque_2
 62
7
100
AcDbLine
 10
214.613637
 20
52.121355
 30
0.0
 11
219.487945
 21
47.247047
 31
0.0
  0
SPLINE
  5
1b1
100
AcDbEntity
  8
Calque_2
 62
7
100
AcDbSpline
 70
0
 71
3
 72
10
 73
6
 74
4
 40
0.000000
 40
0.000000
 40
0.000000
 40
0.000000
 40
0.870105
 40
1.714404
 40
2.584509
 40
2.584509
 40
2.584509
 40
2.584509
 10
212.260203
 20
52.121355
 30
0.0
 10
212.498760
 20
52.295181
 30
0.0
 10
212.968798
 20
52.637676
 30
0.0
 10
213.905041
 20
52.637676
 30
0.0
 10
214.375080
 20
52.295181
 30
0.0
 10
214.613637
 20
52.121355
 30
0.0
 11
212.260203
 21
52.121355
 31
0.0
 11
213.014771
 21
52.554611
 31
0.0
 11
213.859069
 21
52.554611
 31
0.0
 11
214.613637
 21
52.121355
 31
0.0
  0
LINE
  5
1b2
100
AcDbEntity
  8
Calque_2
 62
7
100
AcDbLine
 10
219.487945
 20
44.893612
 30
0.0
 11
219.487945
 21
44.893612
 31
0.0
  0
LINE
  5
1b3
100
AcDbEntity
  8
Calque_2
 62
7
100
AcDbLine
 10
156.566004
 20
156.015357
 30
0.0
 11
156.630756
 21
155.950605
 31
0.0
  0
SPLINE
  5
1b4
100
AcDbEntity
  8
Calque_2
 62
7
100
AcDbSpline
 70
0
 71
3
 72
13
 73
9
 74
7
 40
0.000000
 40
0.000000
 40
0.000000
 40
0.000000
 40
0.435627
 40
0.867650
 40
1.303277
 40
1.738904
 40
2.170927
 40
2.606554
 40
2.606554
 40
2.606554
 40
2.606554
 10
219.487945
 20
47.247047
 30
0.0
 10
219.583079
 20
47.136224
 30
0.0
 10
219.772560
 20
46.915496
 30
0.0
 10
219.936025
 20
46.505097
 30
0.0
 10
219.995106
 20
46.070330
 30
0.0
 10
219.936025
 20
45.635562
 30
0.0
 10
219.772560
 20
45.225163
 30
0.0
 10
219.583079
 20
45.004435
 30
0.0
 10
219.487945
 20
44.893612
 30
0.0
 11
219.487945
 21
47.247047
 31
0.0
 11
219.753016
 21
46.901346
 31
0.0
 11
219.918344
 21
46.502210
 31
0.0
 11
219.975358
 21
46.070330
 31
0.0
 11
219.918344
 21
45.638449
 31
0.0
 11
219.753016
 21
45.239313
 31
0.0
 11
219.487945
 21
44.893612
 31
0.0
  0
LINE
  5
1b5
100
AcDbEntity
  8
Calque_2
 62
7
100
AcDbLine
 10
156.630756
 20
154.564847
 30
0.0
 11
153.760648
 21
151.694738
 31
0.0
  0
SPLINE
  5
1b6
100
AcDbEntity
  8
Calque_2
 62
7
100
AcDbSpline
 70
0
 71
3
 72
13
 73
9
 74
7
 40
0.000000
 40
0.000000
 40
0.000000
 40
0.000000
 40
0.256508
 40
0.510893
 40
0.767400
 40
1.023908
 40
1.278293
 40
1.534801
 40
1.534801
 40
1.534801
 40
1.534801
 10
156.630756
 20
155.950605
 30
0.0
 10
156.686774
 20
155.885350
 30
0.0
 10
156.798344
 20
155.755380
 30
0.0
 10
156.894596
 20
155.513727
 30
0.0
 10
156.929384
 20
155.257726
 30
0.0
 10
156.894596
 20
155.001724
 30
0.0
 10
156.798344
 20
154.760072
 30
0.0
 10
156.686774
 20
154.630102
 30
0.0
 10
156.630756
 20
154.564847
 30
0.0
 11
156.630756
 21
155.950605
 31
0.0
 11
156.786836
 21
155.747048
 31
0.0
 11
156.884185
 21
155.512027
 31
0.0
 11
156.917756
 21
155.257726
 31
0.0
 11
156.884185
 21
155.003424
 31
0.0
 11
156.786836
 21
154.768403
 31
0.0
 11
156.630756
 21
154.564847
 31
0.0
  0
LINE
  5
1b7
100
AcDbEntity
  8
Calque_2
 62
7
100
AcDbLine
 10
152.374890
 20
151.694738
 30
0.0
 11
152.310137
 21
151.759491
 31
0.0
  0
SPLINE
  5
1b8
100
AcDbEntity
  8
Calque_2
 62
7
100
AcDbSpline
 70
0
 71
3
 72
13
 73
9
 74
7
 40
0.000000
 40
0.000000
 40
0.000000
 40
0.000000
 40
0.256508
 40
0.510893
 40
0.767400
 40
1.023908
 40
1.278293
 40
1.534801
 40
1.534801
 40
1.534801
 40
1.534801
 10
153.760648
 20
151.694738
 30
0.0
 10
153.695393
 20
151.638721
 30
0.0
 10
153.565423
 20
151.527150
 30
0.0
 10
153.323770
 20
151.430898
 30
0.0
 10
153.067769
 20
151.396110
 30
0.0
 10
152.811768
 20
151.430898
 30
0.0
 10
152.570115
 20
151.527150
 30
0.0
 10
152.440145
 20
151.638721
 30
0.0
 10
152.374890
 20
151.694738
 30
0.0
 11
153.760648
 21
151.694738
 31
0.0
 11
153.557091
 21
151.538658
 31
0.0
 11
153.322070
 21
151.441309
 31
0.0
 11
153.067769
 21
151.407738
 31
0.0
 11
152.813467
 21
151.441309
 31
0.0
 11
152.578446
 21
151.538658
 31
0.0
 11
152.374890
 21
151.694738
 31
0.0
  0
LINE
  5
1b9
100
AcDbEntity
  8
Calque_2
 62
7
100
AcDbLine
 10
152.310137
 20
153.145249
 30
0.0
 11
155.180246
 21
156.015357
 31
0.0
  0
SPLINE
  5
1ba
100
AcDbEntity
  8
Calque_2
 62
7
100
AcDbSpline
 70
0
 71
3
 72
13
 73
9
 74
7
 40
0.000000
 40
0.000000
 40
0.000000
 40
0.000000
 40
0.256508
 40
0.510893
 40
0.767400
 40
1.023908
 40
1.278293
 40
1.534801
 40
1.534801
 40
1.534801
 40
1.534801
 10
152.310137
 20
151.759491
 30
0.0
 10
152.254120
 20
151.824746
 30
0.0
 10
152.142549
 20
151.954716
 30
0.0
 10
152.046297
 20
152.196368
 30
0.0
 10
152.011509
 20
152.452370
 30
0.0
 10
152.046297
 20
152.708371
 30
0.0
 10
152.142549
 20
152.950024
 30
0.0
 10
152.254120
 20
153.079994
 30
0.0
 10
152.310137
 20
153.145249
 30
0.0
 11
152.310137
 21
151.759491
 31
0.0
 11
152.154057
 21
151.963047
 31
0.0
 11
152.056708
 21
152.198068
 31
0.0
 11
152.023137
 21
152.452370
 31
0.0
 11
152.056708
 21
152.706671
 31
0.0
 11
152.154057
 21
152.941692
 31
0.0
 11
152.310137
 21
153.145249
 31
0.0
  0
LINE
  5
1bb
100
AcDbEntity
  8
Calque_2
 62
7
100
AcDbLine
 10
156.566004
 20
156.015357
 30
0.0
 11
156.566004
 21
156.015357
 31
0.0
  0
LINE
  5
1bc
100
AcDbEntity
  8
Calque_2
 62
7
100
AcDbLine
 10
189.595641
 20
164.512978
 30
0.0
 11
190.017580
 21
163.782156
 31
0.0
  0
SPLINE
  5
1bd
100
AcDbEntity
  8
Calque_2
 62
7
100
AcDbSpline
 70
0
 71
3
 72
13
 73
9
 74
7
 40
0.000000
 40
0.000000
 40
0.000000
 40
0.000000
 40
0.256508
 40
0.510893
 40
0.767400
 40
1.023908
 40
1.278293
 40
1.534801
 40
1.534801
 40
1.534801
 40
1.534801
 10
155.180246
 20
156.015357
 30
0.0
 10
155.245501
 20
156.071375
 30
0.0
 10
155.375471
 20
156.182945
 30
0.0
 10
155.617124
 20
156.279197
 30
0.0
 10
155.873125
 20
156.313985
 30
0.0
 10
156.129126
 20
156.279197
 30
0.0
 10
156.370779
 20
156.182945
 30
0.0
 10
156.500749
 20
156.071375
 30
0.0
 10
156.566004
 20
156.015357
 30
0.0
 11
155.180246
 21
156.015357
 31
0.0
 11
155.383802
 21
156.171437
 31
0.0
 11
155.618823
 21
156.268786
 31
0.0
 11
155.873125
 21
156.302357
 31
0.0
 11
156.127426
 21
156.268786
 31
0.0
 11
156.362447
 21
156.171437
 31
0.0
 11
156.566004
 21
156.015357
 31
0.0
  0
LINE
  5
1be
100
AcDbEntity
  8
Calque_2
 62
7
100
AcDbLine
 10
189.421670
 20
161.558188
 30
0.0
 11
183.581287
 21
158.186242
 31
0.0
  0
SPLINE
  5
1bf
100
AcDbEntity
  8
Calque_2
 62
7
100
AcDbSpline
 70
0
 71
3
 72
13
 73
9
 74
7
 40
0.000000
 40
0.000000
 40
0.000000
 40
0.000000
 40
0.426185
 40
0.848842
 40
1.275027
 40
1.701211
 40
2.123869
 40
2.550054
 40
2.550054
 40
2.550054
 40
2.550054
 10
190.017580
 20
163.782156
 30
0.0
 10
190.079420
 20
163.653341
 30
0.0
 10
190.202587
 20
163.396778
 30
0.0
 10
190.253142
 20
162.967564
 30
0.0
 10
190.198886
 20
162.541755
 30
0.0
 10
190.032968
 20
162.145865
 30
0.0
 10
189.774579
 20
161.799433
 30
0.0
 10
189.539632
 20
161.638826
 30
0.0
 10
189.421670
 20
161.558188
 30
0.0
 11
190.017580
 21
163.782156
 31
0.0
 11
190.180535
 21
163.388355
 31
0.0
 11
190.235702
 21
162.969313
 31
0.0
 11
190.180224
 21
162.546755
 31
0.0
 11
190.016991
 21
162.153070
 31
0.0
 11
189.759693
 21
161.817753
 31
0.0
 11
189.421670
 21
161.558188
 31
0.0
  0
LINE
  5
1c0
100
AcDbEntity
  8
Calque_2
 62
7
100
AcDbLine
 10
181.357320
 20
158.782152
 30
0.0
 11
180.935380
 21
159.512974
 31
0.0
  0
SPLINE
  5
1c1
100
AcDbEntity
  8
Calque_2
 62
7
100
AcDbSpline
 70
0
 71
3
 72
13
 73
9
 74
7
 40
0.000000
 40
0.000000
 40
0.000000
 40
0.000000
 40
0.426185
 40
0.848842
 40
1.275027
 40
1.701211
 40
2.123869
 40
2.550054
 40
2.550054
 40
2.550054
 40
2.550054
 10
183.581287
 20
158.186242
 30
0.0
 10
183.452473
 20
158.124403
 30
0.0
 10
183.195909
 20
158.001236
 30
0.0
 10
182.766696
 20
157.950680
 30
0.0
 10
182.340886
 20
158.004937
 30
0.0
 10
181.944996
 20
158.170854
 30
0.0
 10
181.598564
 20
158.429243
 30
0.0
 10
181.437957
 20
158.664190
 30
0.0
 10
181.357320
 20
158.782152
 30
0.0
 11
183.581287
 21
158.186242
 31
0.0
 11
183.187486
 21
158.023288
 31
0.0
 11
182.768445
 21
157.968120
 31
0.0
 11
182.345886
 21
158.023598
 31
0.0
 11
181.952201
 21
158.186832
 31
0.0
 11
181.616884
 21
158.444129
 31
0.0
 11
181.357320
 21
158.782152
 31
0.0
  0
LINE
  5
1c2
100
AcDbEntity
  8
Calque_2
 62
7
100
AcDbLine
 10
181.531290
 20
161.736941
 30
0.0
 11
187.371673
 21
165.108888
 31
0.0
  0
SPLINE
  5
1c3
100
AcDbEntity
  8
Calque_2
 62
7
100
AcDbSpline
 70
0
 71
3
 72
13
 73
9
 74
7
 40
0.000000
 40
0.000000
 40
0.000000
 40
0.000000
 40
0.426185
 40
0.848842
 40
1.275027
 40
1.701211
 40
2.123869
 40
2.550054
 40
2.550054
 40
2.550054
 40
2.550054
 10
180.935380
 20
159.512974
 30
0.0
 10
180.873540
 20
159.641788
 30
0.0
 10
180.750374
 20
159.898352
 30
0.0
 10
180.699818
 20
160.327565
 30
0.0
 10
180.754074
 20
160.753375
 30
0.0
 10
180.919992
 20
161.149265
 30
0.0
 10
181.178381
 20
161.495697
 30
0.0
 10
181.413328
 20
161.656304
 30
0.0
 10
181.531290
 20
161.736941
 30
0.0
 11
180.935380
 21
159.512974
 31
0.0
 11
180.772426
 21
159.906775
 31
0.0
 11
180.717258
 21
160.325816
 31
0.0
 11
180.772736
 21
160.748375
 31
0.0
 11
180.935969
 21
161.142060
 31
0.0
 11
181.193267
 21
161.477377
 31
0.0
 11
181.531290
 21
161.736941
 31
0.0
  0
LINE
  5
1c4
100
AcDbEntity
  8
Calque_2
 62
7
100
AcDbLine
 10
189.595641
 20
164.512978
 30
0.0
 11
189.595641
 21
164.512978
 31
0.0
  0
LINE
  5
1c5
100
AcDbEntity
  8
Calque_2
 62
7
100
AcDbLine
 10
223.682447
 20
156.309783
 30
0.0
 11
224.373052
 21
153.732412
 31
0.0
  0
SPLINE
  5
1c6
100
AcDbEntity
  8
Calque_2
 62
7
100
AcDbSpline
 70
0
 71
3
 72
13
 73
9
 74
7
 40
0.000000
 40
0.000000
 40
0.000000
 40
0.000000
 40
0.426185
 40
0.848842
 40
1.275027
 40
1.701211
 40
2.123869
 40
2.550054
 40
2.550054
 40
2.550054
 40
2.550054
 10
187.371673
 20
165.108888
 30
0.0
 10
187.500488
 20
165.170727
 30
0.0
 10
187.757051
 20
165.293894
 30
0.0
 10
188.186265
 20
165.344450
 30
0.0
 10
188.612074
 20
165.290193
 30
0.0
 10
189.007964
 20
165.124276
 30
0.0
 10
189.354396
 20
164.865887
 30
0.0
 10
189.515003
 20
164.630939
 30
0.0
 10
189.595641
 20
164.512978
 30
0.0
 11
187.371673
 21
165.108888
 31
0.0
 11
187.765474
 21
165.271842
 31
0.0
 11
188.184516
 21
165.327010
 31
0.0
 11
188.607074
 21
165.271532
 31
0.0
 11
189.000759
 21
165.108298
 31
0.0
 11
189.336076
 21
164.851000
 31
0.0
 11
189.595641
 21
164.512978
 31
0.0
  0
LINE
  5
1c7
100
AcDbEntity
  8
Calque_2
 62
7
100
AcDbLine
 10
223.174565
 20
151.656573
 30
0.0
 11
216.392955
 21
149.839446
 31
0.0
  0
SPLINE
  5
1c8
100
AcDbEntity
  8
Calque_2
 62
7
100
AcDbSpline
 70
0
 71
3
 72
13
 73
9
 74
7
 40
0.000000
 40
0.000000
 40
0.000000
 40
0.000000
 40
0.443686
 40
0.883701
 40
1.327388
 40
1.771074
 40
2.211089
 40
2.654775
 40
2.654775
 40
2.654775
 40
2.654775
 10
224.373052
 20
153.732412
 30
0.0
 10
224.400528
 20
153.586215
 30
0.0
 10
224.455253
 20
153.295029
 30
0.0
 10
224.390441
 20
152.849793
 30
0.0
 10
224.221148
 20
152.436221
 30
0.0
 10
223.947631
 20
152.082823
 30
0.0
 10
223.594451
 20
151.804076
 30
0.0
 10
223.314914
 20
151.705877
 30
0.0
 10
223.174565
 20
151.656573
 30
0.0
 11
224.373052
 21
153.732412
 31
0.0
 11
224.430809
 21
153.292501
 31
0.0
 11
224.373375
 21
152.856251
 31
0.0
 11
224.203729
 21
152.446278
 31
0.0
 11
223.933505
 21
152.094374
 31
0.0
 11
223.584418
 21
151.826510
 31
0.0
 11
223.174565
 21
151.656573
 31
0.0
  0
LINE
  5
1c9
100
AcDbEntity
  8
Calque_2
 62
7
100
AcDbLine
 10
214.317116
 20
151.037933
 30
0.0
 11
213.626512
 21
153.615303
 31
0.0
  0
SPLINE
  5
1ca
100
AcDbEntity
  8
Calque_2
 62
7
100
AcDbSpline
 70
0
 71
3
 72
13
 73
9
 74
7
 40
0.000000
 40
0.000000
 40
0.000000
 40
0.000000
 40
0.443686
 40
0.883701
 40
1.327388
 40
1.771074
 40
2.211089
 40
2.654775
 40
2.654775
 40
2.654775
 40
2.654775
 10
216.392955
 20
149.839446
 30
0.0
 10
216.246758
 20
149.811970
 30
0.0
 10
215.955572
 20
149.757245
 30
0.0
 10
215.510336
 20
149.822057
 30
0.0
 10
215.096764
 20
149.991350
 30
0.0
 10
214.743366
 20
150.264867
 30
0.0
 10
214.464619
 20
150.618047
 30
0.0
 10
214.366420
 20
150.897583
 30
0.0
 10
214.317116
 20
151.037933
 30
0.0
 11
216.392955
 21
149.839446
 31
0.0
 11
215.953044
 21
149.781689
 31
0.0
 11
215.516794
 21
149.839123
 31
0.0
 11
215.106821
 21
150.008769
 31
0.0
 11
214.754917
 21
150.278993
 31
0.0
 11
214.487053
 21
150.628080
 31
0.0
 11
214.317116
 21
151.037933
 31
0.0
  0
LINE
  5
1cb
100
AcDbEntity
  8
Calque_2
 62
7
100
AcDbLine
 10
214.824998
 20
155.691143
 30
0.0
 11
221.606608
 21
157.508270
 31
0.0
  0
SPLINE
  5
1cc
100
AcDbEntity
  8
Calque_2
 62
7
100
AcDbSpline
 70
0
 71
3
 72
13
 73
9
 74
7
 40
0.000000
 40
0.000000
 40
0.000000
 40
0.000000
 40
0.443686
 40
0.883701
 40
1.327388
 40
1.771074
 40
2.211089
 40
2.654775
 40
2.654775
 40
2.654775
 40
2.654775
 10
213.626512
 20
153.615303
 30
0.0
 10
213.599035
 20
153.761501
 30
0.0
 10
213.544310
 20
154.052687
 30
0.0
 10
213.609122
 20
154.497923
 30
0.0
 10
213.778416
 20
154.911494
 30
0.0
 10
214.051933
 20
155.264892
 30
0.0
 10
214.405112
 20
155.543640
 30
0.0
 10
214.684649
 20
155.641839
 30
0.0
 10
214.824998
 20
155.691143
 30
0.0
 11
213.626512
 21
153.615303
 31
0.0
 11
213.568755
 21
154.055214
 31
0.0
 11
213.626188
 21
154.491465
 31
0.0
 11
213.795834
 21
154.901438
 31
0.0
 11
214.066058
 21
155.253342
 31
0.0
 11
214.415145
 21
155.521206
 31
0.0
 11
214.824998
 21
155.691143
 31
0.0
  0
LINE
  5
1cd
100
AcDbEntity
  8
Calque_2
 62
7
100
AcDbLine
 10
223.682447
 20
156.309783
 30
0.0
 11
223.682447
 21
156.309783
 31
0.0
  0
LINE
  5
1ce
100
AcDbEntity
  8
Calque_2
 62
7
100
AcDbLine
 10
253.530840
 20
132.496321
 30
0.0
 11
253.530840
 21
127.549168
 31
0.0
  0
SPLINE
  5
1cf
100
AcDbEntity
  8
Calque_2
 62
7
100
AcDbSpline
 70
0
 71
3
 72
13
 73
9
 74
7
 40
0.000000
 40
0.000000
 40
0.000000
 40
0.000000
 40
0.443686
 40
0.883701
 40
1.327388
 40
1.771074
 40
2.211089
 40
2.654775
 40
2.654775
 40
2.654775
 40
2.654775
 10
221.606608
 20
157.508270
 30
0.0
 10
221.752806
 20
157.535746
 30
0.0
 10
222.043991
 20
157.590471
 30
0.0
 10
222.489227
 20
157.525659
 30
0.0
 10
222.902799
 20
157.356365
 30
0.0
 10
223.256197
 20
157.082849
 30
0.0
 10
223.534944
 20
156.729669
 30
0.0
 10
223.633144
 20
156.450132
 30
0.0
 10
223.682447
 20
156.309783
 30
0.0
 11
221.606608
 21
157.508270
 31
0.0
 11
222.046519
 21
157.566026
 31
0.0
 11
222.482769
 21
157.508593
 31
0.0
 11
222.892742
 21
157.338947
 31
0.0
 11
223.244647
 21
157.068723
 31
0.0
 11
223.512511
 21
156.719636
 31
0.0
 11
223.682447
 21
156.309783
 31
0.0
  0
LINE
  5
1d0
100
AcDbEntity
  8
Calque_2
 62
7
100
AcDbLine
 10
251.866711
 20
125.885038
 30
0.0
 11
244.973398
 21
125.885038
 31
0.0
  0
SPLINE
  5
1d1
100
AcDbEntity
  8
Calque_2
 62
7
100
AcDbSpline
 70
0
 71
3
 72
13
 73
9
 74
7
 40
0.000000
 40
0.000000
 40
0.000000
 40
0.000000
 40
0.435627
 40
0.867650
 40
1.303277
 40
1.738904
 40
2.170927
 40
2.606554
 40
2.606554
 40
2.606554
 40
2.606554
 10
253.530840
 20
127.549168
 30
0.0
 10
253.519747
 20
127.403535
 30
0.0
 10
253.497651
 20
127.113473
 30
0.0
 10
253.323042
 20
126.707690
 30
0.0
 10
253.057392
 20
126.358487
 30
0.0
 10
252.708189
 20
126.092836
 30
0.0
 10
252.302405
 20
125.918227
 30
0.0
 10
252.012344
 20
125.896132
 30
0.0
 10
251.866711
 20
125.885038
 30
0.0
 11
253.530840
 21
127.549168
 31
0.0
 11
253.473826
 21
127.117288
 31
0.0
 11
253.308498
 21
126.718151
 31
0.0
 11
253.043428
 21
126.372451
 31
0.0
 11
252.697727
 21
126.107380
 31
0.0
 11
252.298591
 21
125.942052
 31
0.0
 11
251.866711
 21
125.885038
 31
0.0
  0
LINE
  5
1d2
100
AcDbEntity
  8
Calque_2
 62
7
100
AcDbLine
 10
243.309268
 20
127.549168
 30
0.0
 11
243.309268
 21
132.496321
 31
0.0
  0
SPLINE
  5
1d3
100
AcDbEntity
  8
Calque_2
 62
7
100
AcDbSpline
 70
0
 71
3
 72
13
 73
9
 74
7
 40
0.000000
 40
0.000000
 40
0.000000
 40
0.000000
 40
0.435627
 40
0.867650
 40
1.303277
 40
1.738904
 40
2.170927
 40
2.606554
 40
2.606554
 40
2.606554
 40
2.606554
 10
244.973398
 20
125.885038
 30
0.0
 10
244.827764
 20
125.896132
 30
0.0
 10
244.537703
 20
125.918227
 30
0.0
 10
244.131919
 20
126.092836
 30
0.0
 10
243.782716
 20
126.358487
 30
0.0
 10
243.517066
 20
126.707690
 30
0.0
 10
243.342457
 20
127.113473
 30
0.0
 10
243.320361
 20
127.403535
 30
0.0
 10
243.309268
 20
127.549168
 30
0.0
 11
244.973398
 21
125.885038
 31
0.0
 11
244.541517
 21
125.942052
 31
0.0
 11
244.142381
 21
126.107380
 31
0.0
 11
243.796680
 21
126.372451
 31
0.0
 11
243.531610
 21
126.718151
 31
0.0
 11
243.366282
 21
127.117288
 31
0.0
 11
243.309268
 21
127.549168
 31
0.0
  0
LINE
  5
1d4
100
AcDbEntity
  8
Calque_2
 62
7
100
AcDbLine
 10
244.973398
 20
134.160450
 30
0.0
 11
251.866711
 21
134.160450
 31
0.0
  0
SPLINE
  5
1d5
100
AcDbEntity
  8
Calque_2
 62
7
100
AcDbSpline
 70
0
 71
3
 72
13
 73
9
 74
7
 40
0.000000
 40
0.000000
 40
0.000000
 40
0.000000
 40
0.435627
 40
0.867650
 40
1.303277
 40
1.738904
 40
2.170927
 40
2.606554
 40
2.606554
 40
2.606554
 40
2.606554
 10
243.309268
 20
132.496321
 30
0.0
 10
243.320361
 20
132.641954
 30
0.0
 10
243.342457
 20
132.932015
 30
0.0
 10
243.517066
 20
133.337799
 30
0.0
 10
243.782716
 20
133.687002
 30
0.0
 10
244.131919
 20
133.952652
 30
0.0
 10
244.537703
 20
134.127261
 30
0.0
 10
244.827764
 20
134.149357
 30
0.0
 10
244.973398
 20
134.160450
 30
0.0
 11
243.309268
 21
132.496321
 31
0.0
 11
243.366282
 21
132.928201
 31
0.0
 11
243.531610
 21
133.327337
 31
0.0
 11
243.796680
 21
133.673038
 31
0.0
 11
244.142381
 21
133.938108
 31
0.0
 11
244.541517
 21
134.103436
 31
0.0
 11
244.973398
 21
134.160450
 31
0.0
  0
LINE
  5
1d6
100
AcDbEntity
  8
Calque_2
 62
7
100
AcDbLine
 10
253.530840
 20
132.496321
 30
0.0
 11
253.530840
 21
132.496321
 31
0.0
  0
LINE
  5
1d7
100
AcDbEntity
  8
Calque_2
 62
7
100
AcDbLine
 10
104.536588
 20
155.590834
 30
0.0
 11
104.601341
 21
155.655586
 31
0.0
  0
SPLINE
  5
1d8
100
AcDbEntity
  8
Calque_2
 62
7
100
AcDbSpline
 70
0
 71
3
 72
13
 73
9
 74
7
 40
0.000000
 40
0.000000
 40
0.000000
 40
0.000000
 40
0.435627
 40
0.867650
 40
1.303277
 40
1.738904
 40
2.170927
 40
2.606554
 40
2.606554
 40
2.606554
 40
2.606554
 10
251.866710
 20
134.160450
 30
0.0
 10
252.012344
 20
134.149357
 30
0.0
 10
252.302405
 20
134.127261
 30
0.0
 10
252.708189
 20
133.952652
 30
0.0
 10
253.057392
 20
133.687002
 30
0.0
 10
253.323042
 20
133.337799
 30
0.0
 10
253.497651
 20
132.932015
 30
0.0
 10
253.519747
 20
132.641954
 30
0.0
 10
253.530840
 20
132.496321
 30
0.0
 11
251.866711
 21
134.160450
 31
0.0
 11
252.298591
 21
134.103436
 31
0.0
 11
252.697727
 21
133.938108
 31
0.0
 11
253.043428
 21
133.673038
 31
0.0
 11
253.308498
 21
133.327337
 31
0.0
 11
253.473826
 21
132.928201
 31
0.0
 11
253.530840
 21
132.496321
 31
0.0
  0
LINE
  5
1d9
100
AcDbEntity
  8
Calque_2
 62
7
100
AcDbLine
 10
105.987099
 20
155.655586
 30
0.0
 11
108.857208
 21
152.785478
 31
0.0
  0
SPLINE
  5
1da
100
AcDbEntity
  8
Calque_2
 62
7
100
AcDbSpline
 70
0
 71
3
 72
13
 73
9
 74
7
 40
0.000000
 40
0.000000
 40
0.000000
 40
0.000000
 40
0.256508
 40
0.510893
 40
0.767400
 40
1.023908
 40
1.278293
 40
1.534801
 40
1.534801
 40
1.534801
 40
1.534801
 10
104.601341
 20
155.655586
 30
0.0
 10
104.666596
 20
155.711604
 30
0.0
 10
104.796566
 20
155.823174
 30
0.0
 10
105.038219
 20
155.919426
 30
0.0
 10
105.294220
 20
155.954214
 30
0.0
 10
105.550221
 20
155.919426
 30
0.0
 10
105.791874
 20
155.823174
 30
0.0
 10
105.921844
 20
155.711604
 30
0.0
 10
105.987099
 20
155.655586
 30
0.0
 11
104.601341
 21
155.655586
 31
0.0
 11
104.804898
 21
155.811666
 31
0.0
 11
105.039919
 21
155.909015
 31
0.0
 11
105.294220
 21
155.942586
 31
0.0
 11
105.548521
 21
155.909015
 31
0.0
 11
105.783543
 21
155.811666
 31
0.0
 11
105.987099
 21
155.655586
 31
0.0
  0
LINE
  5
1db
100
AcDbEntity
  8
Calque_2
 62
7
100
AcDbLine
 10
108.857208
 20
151.399720
 30
0.0
 11
108.792455
 21
151.334967
 31
0.0
  0
SPLINE
  5
1dc
100
AcDbEntity
  8
Calque_2
 62
7
100
AcDbSpline
 70
0
 71
3
 72
13
 73
9
 74
7
 40
0.000000
 40
0.000000
 40
0.000000
 40
0.000000
 40
0.256508
 40
0.510893
 40
0.767400
 40
1.023908
 40
1.278293
 40
1.534801
 40
1.534801
 40
1.534801
 40
1.534801
 10
108.857208
 20
152.785478
 30
0.0
 10
108.913225
 20
152.720223
 30
0.0
 10
109.024796
 20
152.590253
 30
0.0
 10
109.121048
 20
152.348600
 30
0.0
 10
109.155836
 20
152.092599
 30
0.0
 10
109.121048
 20
151.836598
 30
0.0
 10
109.024796
 20
151.594945
 30
0.0
 10
108.913225
 20
151.464975
 30
0.0
 10
108.857208
 20
151.399720
 30
0.0
 11
108.857208
 21
152.785478
 31
0.0
 11
109.013288
 21
152.581921
 31
0.0
 11
109.110637
 21
152.346900
 31
0.0
 11
109.144208
 21
152.092599
 31
0.0
 11
109.110637
 21
151.838297
 31
0.0
 11
109.013288
 21
151.603276
 31
0.0
 11
108.857208
 21
151.399720
 31
0.0
  0
LINE
  5
1dd
100
AcDbEntity
  8
Calque_2
 62
7
100
AcDbLine
 10
107.406697
 20
151.334967
 30
0.0
 11
104.536588
 21
154.205076
 31
0.0
  0
SPLINE
  5
1de
100
AcDbEntity
  8
Calque_2
 62
7
100
AcDbSpline
 70
0
 71
3
 72
13
 73
9
 74
7
 40
0.000000
 40
0.000000
 40
0.000000
 40
0.000000
 40
0.256508
 40
0.510893
 40
0.767400
 40
1.023908
 40
1.278293
 40
1.534801
 40
1.534801
 40
1.534801
 40
1.534801
 10
108.792455
 20
151.334967
 30
0.0
 10
108.727200
 20
151.278950
 30
0.0
 10
108.597230
 20
151.167379
 30
0.0
 10
108.355577
 20
151.071127
 30
0.0
 10
108.099576
 20
151.036339
 30
0.0
 10
107.843575
 20
151.071127
 30
0.0
 10
107.601922
 20
151.167379
 30
0.0
 10
107.471952
 20
151.278950
 30
0.0
 10
107.406697
 20
151.334967
 30
0.0
 11
108.792455
 21
151.334967
 31
0.0
 11
108.588899
 21
151.178887
 31
0.0
 11
108.353877
 21
151.081538
 31
0.0
 11
108.099576
 21
151.047967
 31
0.0
 11
107.845275
 21
151.081538
 31
0.0
 11
107.610254
 21
151.178887
 31
0.0
 11
107.406697
 21
151.334967
 31
0.0
  0
LINE
  5
1df
100
AcDbEntity
  8
Calque_2
 62
7
100
AcDbLine
 10
104.536588
 20
155.590834
 30
0.0
 11
104.536588
 21
155.590834
 31
0.0
  0
LINE
  5
1e0
100
AcDbEntity
  8
Calque_2
 62
7
100
AcDbLine
 10
96.038980
 20
188.620477
 30
0.0
 11
96.769802
 21
189.042417
 31
0.0
  0
SPLINE
  5
1e1
100
AcDbEntity
  8
Calque_2
 62
7
100
AcDbSpline
 70
0
 71
3
 72
13
 73
9
 74
7
 40
0.000000
 40
0.000000
 40
0.000000
 40
0.000000
 40
0.256508
 40
0.510893
 40
0.767400
 40
1.023908
 40
1.278293
 40
1.534801
 40
1.534801
 40
1.534801
 40
1.534801
 10
104.536588
 20
154.205076
 30
0.0
 10
104.480571
 20
154.270331
 30
0.0
 10
104.369000
 20
154.400301
 30
0.0
 10
104.272748
 20
154.641954
 30
0.0
 10
104.237960
 20
154.897955
 30
0.0
 10
104.272748
 20
155.153956
 30
0.0
 10
104.369000
 20
155.395609
 30
0.0
 10
104.480571
 20
155.525579
 30
0.0
 10
104.536588
 20
155.590834
 30
0.0
 11
104.536588
 21
154.205076
 31
0.0
 11
104.380509
 21
154.408632
 31
0.0
 11
104.283160
 21
154.643653
 31
0.0
 11
104.249589
 21
154.897955
 31
0.0
 11
104.283160
 21
155.152256
 31
0.0
 11
104.380509
 21
155.387277
 31
0.0
 11
104.536588
 21
155.590834
 31
0.0
  0
LINE
  5
1e2
100
AcDbEntity
  8
Calque_2
 62
7
100
AcDbLine
 10
98.993770
 20
188.446507
 30
0.0
 11
102.365716
 21
182.606124
 31
0.0
  0
SPLINE
  5
1e3
100
AcDbEntity
  8
Calque_2
 62
7
100
AcDbSpline
 70
0
 71
3
 72
13
 73
9
 74
7
 40
0.000000
 40
0.000000
 40
0.000000
 40
0.000000
 40
0.426185
 40
0.848842
 40
1.275027
 40
1.701211
 40
2.123869
 40
2.550054
 40
2.550054
 40
2.550054
 40
2.550054
 10
96.769802
 20
189.042417
 30
0.0
 10
96.898616
 20
189.104257
 30
0.0
 10
97.155180
 20
189.227423
 30
0.0
 10
97.584394
 20
189.277979
 30
0.0
 10
98.010203
 20
189.223723
 30
0.0
 10
98.406093
 20
189.057805
 30
0.0
 10
98.752525
 20
188.799416
 30
0.0
 10
98.913132
 20
188.564469
 30
0.0
 10
98.993770
 20
188.446507
 30
0.0
 11
96.769802
 21
189.042417
 31
0.0
 11
97.163603
 21
189.205371
 31
0.0
 11
97.582644
 21
189.260539
 31
0.0
 11
98.005203
 21
189.205061
 31
0.0
 11
98.398888
 21
189.041828
 31
0.0
 11
98.734205
 21
188.784530
 31
0.0
 11
98.993770
 21
188.446507
 31
0.0
  0
LINE
  5
1e4
100
AcDbEntity
  8
Calque_2
 62
7
100
AcDbLine
 10
101.769806
 20
180.382156
 30
0.0
 11
101.038984
 21
179.960217
 31
0.0
  0
SPLINE
  5
1e5
100
AcDbEntity
  8
Calque_2
 62
7
100
AcDbSpline
 70
0
 71
3
 72
13
 73
9
 74
7
 40
0.000000
 40
0.000000
 40
0.000000
 40
0.000000
 40
0.426185
 40
0.848842
 40
1.275027
 40
1.701211
 40
2.123869
 40
2.550054
 40
2.550054
 40
2.550054
 40
2.550054
 10
102.365716
 20
182.606124
 30
0.0
 10
102.427555
 20
182.477309
 30
0.0
 10
102.550722
 20
182.220746
 30
0.0
 10
102.601278
 20
181.791532
 30
0.0
 10
102.547021
 20
181.365723
 30
0.0
 10
102.381104
 20
180.969833
 30
0.0
 10
102.122715
 20
180.623401
 30
0.0
 10
101.887767
 20
180.462794
 30
0.0
 10
101.769806
 20
180.382156
 30
0.0
 11
102.365716
 21
182.606124
 31
0.0
 11
102.528670
 21
182.212323
 31
0.0
 11
102.583838
 21
181.793281
 31
0.0
 11
102.528360
 21
181.370723
 31
0.0
 11
102.365126
 21
180.977038
 31
0.0
 11
102.107829
 21
180.641721
 31
0.0
 11
101.769806
 21
180.382156
 31
0.0
  0
LINE
  5
1e6
100
AcDbEntity
  8
Calque_2
 62
7
100
AcDbLine
 10
98.815016
 20
180.556127
 30
0.0
 11
95.443070
 21
186.396510
 31
0.0
  0
SPLINE
  5
1e7
100
AcDbEntity
  8
Calque_2
 62
7
100
AcDbSpline
 70
0
 71
3
 72
13
 73
9
 74
7
 40
0.000000
 40
0.000000
 40
0.000000
 40
0.000000
 40
0.426185
 40
0.848842
 40
1.275027
 40
1.701211
 40
2.123869
 40
2.550054
 40
2.550054
 40
2.550054
 40
2.550054
 10
101.038984
 20
179.960217
 30
0.0
 10
100.910170
 20
179.898377
 30
0.0
 10
100.653606
 20
179.775210
 30
0.0
 10
100.224392
 20
179.724655
 30
0.0
 10
99.798583
 20
179.778911
 30
0.0
 10
99.402693
 20
179.944829
 30
0.0
 10
99.056261
 20
180.203218
 30
0.0
 10
98.895654
 20
180.438165
 30
0.0
 10
98.815016
 20
180.556127
 30
0.0
 11
101.038984
 21
179.960217
 31
0.0
 11
100.645183
 21
179.797262
 31
0.0
 11
100.226142
 21
179.742095
 31
0.0
 11
99.803583
 21
179.797573
 31
0.0
 11
99.409898
 21
179.960806
 31
0.0
 11
99.074581
 21
180.218104
 31
0.0
 11
98.815016
 21
180.556127
 31
0.0
  0
LINE
  5
1e8
100
AcDbEntity
  8
Calque_2
 62
7
100
AcDbLine
 10
96.038980
 20
188.620477
 30
0.0
 11
96.038980
 21
188.620477
 31
0.0
  0
LINE
  5
1e9
100
AcDbEntity
  8
Calque_2
 62
7
100
AcDbLine
 10
104.242164
 20
222.707281
 30
0.0
 11
106.819534
 21
223.397885
 31
0.0
  0
SPLINE
  5
1ea
100
AcDbEntity
  8
Calque_2
 62
7
100
AcDbSpline
 70
0
 71
3
 72
13
 73
9
 74
7
 40
0.000000
 40
0.000000
 40
0.000000
 40
0.000000
 40
0.426185
 40
0.848842
 40
1.275027
 40
1.701211
 40
2.123869
 40
2.550054
 40
2.550054
 40
2.550054
 40
2.550054
 10
95.443070
 20
186.396510
 30
0.0
 10
95.381231
 20
186.525324
 30
0.0
 10
95.258064
 20
186.781888
 30
0.0
 10
95.207508
 20
187.211101
 30
0.0
 10
95.261765
 20
187.636911
 30
0.0
 10
95.427682
 20
188.032801
 30
0.0
 10
95.686071
 20
188.379233
 30
0.0
 10
95.921019
 20
188.539840
 30
0.0
 10
96.038980
 20
188.620477
 30
0.0
 11
95.443070
 21
186.396510
 31
0.0
 11
95.280116
 21
186.790311
 31
0.0
 11
95.224948
 21
187.209352
 31
0.0
 11
95.280426
 21
187.631911
 31
0.0
 11
95.443660
 21
188.025596
 31
0.0
 11
95.700957
 21
188.360913
 31
0.0
 11
96.038980
 21
188.620477
 31
0.0
  0
LINE
  5
1eb
100
AcDbEntity
  8
Calque_2
 62
7
100
AcDbLine
 10
108.895374
 20
222.199398
 30
0.0
 11
110.712501
 21
215.417789
 31
0.0
  0
SPLINE
  5
1ec
100
AcDbEntity
  8
Calque_2
 62
7
100
AcDbSpline
 70
0
 71
3
 72
13
 73
9
 74
7
 40
0.000000
 40
0.000000
 40
0.000000
 40
0.000000
 40
0.443686
 40
0.883701
 40
1.327388
 40
1.771074
 40
2.211089
 40
2.654775
 40
2.654775
 40
2.654775
 40
2.654775
 10
106.819534
 20
223.397885
 30
0.0
 10
106.965732
 20
223.425361
 30
0.0
 10
107.256918
 20
223.480086
 30
0.0
 10
107.702154
 20
223.415274
 30
0.0
 10
108.115725
 20
223.245981
 30
0.0
 10
108.469123
 20
222.972464
 30
0.0
 10
108.747870
 20
222.619284
 30
0.0
 10
108.846070
 20
222.339748
 30
0.0
 10
108.895374
 20
222.199398
 30
0.0
 11
106.819534
 21
223.397885
 31
0.0
 11
107.259445
 21
223.455642
 31
0.0
 11
107.695696
 21
223.398208
 31
0.0
 11
108.105669
 21
223.228562
 31
0.0
 11
108.457573
 21
222.958338
 31
0.0
 11
108.725437
 21
222.609251
 31
0.0
 11
108.895374
 21
222.199398
 31
0.0
  0
LINE
  5
1ed
100
AcDbEntity
  8
Calque_2
 62
7
100
AcDbLine
 10
109.514014
 20
213.341949
 30
0.0
 11
106.936643
 21
212.651345
 31
0.0
  0
SPLINE
  5
1ee
100
AcDbEntity
  8
Calque_2
 62
7
100
AcDbSpline
 70
0
 71
3
 72
13
 73
9
 74
7
 40
0.000000
 40
0.000000
 40
0.000000
 40
0.000000
 40
0.443686
 40
0.883701
 40
1.327388
 40
1.771074
 40
2.211089
 40
2.654775
 40
2.654775
 40
2.654775
 40
2.654775
 10
110.712501
 20
215.417789
 30
0.0
 10
110.739977
 20
215.271591
 30
0.0
 10
110.794702
 20
214.980405
 30
0.0
 10
110.729890
 20
214.535169
 30
0.0
 10
110.560596
 20
214.121597
 30
0.0
 10
110.287079
 20
213.768199
 30
0.0
 10
109.933900
 20
213.489452
 30
0.0
 10
109.654363
 20
213.391253
 30
0.0
 10
109.514014
 20
213.341949
 30
0.0
 11
110.712501
 21
215.417789
 31
0.0
 11
110.770257
 21
214.977877
 31
0.0
 11
110.712824
 21
214.541627
 31
0.0
 11
110.543178
 21
214.131654
 31
0.0
 11
110.272954
 21
213.779750
 31
0.0
 11
109.923867
 21
213.511886
 31
0.0
 11
109.514014
 21
213.341949
 31
0.0
  0
LINE
  5
1ef
100
AcDbEntity
  8
Calque_2
 62
7
100
AcDbLine
 10
104.860804
 20
213.849831
 30
0.0
 11
103.043677
 21
220.631441
 31
0.0
  0
SPLINE
  5
1f0
100
AcDbEntity
  8
Calque_2
 62
7
100
AcDbSpline
 70
0
 71
3
 72
13
 73
9
 74
7
 40
0.000000
 40
0.000000
 40
0.000000
 40
0.000000
 40
0.443686
 40
0.883701
 40
1.327388
 40
1.771074
 40
2.211089
 40
2.654775
 40
2.654775
 40
2.654775
 40
2.654775
 10
106.936643
 20
212.651345
 30
0.0
 10
106.790446
 20
212.623868
 30
0.0
 10
106.499260
 20
212.569143
 30
0.0
 10
106.054024
 20
212.633955
 30
0.0
 10
105.640452
 20
212.803249
 30
0.0
 10
105.287054
 20
213.076766
 30
0.0
 10
105.008307
 20
213.429945
 30
0.0
 10
104.910108
 20
213.709482
 30
0.0
 10
104.860804
 20
213.849831
 30
0.0
 11
106.936643
 21
212.651345
 31
0.0
 11
106.496732
 21
212.593588
 31
0.0
 11
106.060482
 21
212.651021
 31
0.0
 11
105.650509
 21
212.820667
 31
0.0
 11
105.298605
 21
213.090891
 31
0.0
 11
105.030741
 21
213.439979
 31
0.0
 11
104.860804
 21
213.849831
 31
0.0
  0
LINE
  5
1f1
100
AcDbEntity
  8
Calque_2
 62
7
100
AcDbLine
 10
104.242164
 20
222.707281
 30
0.0
 11
104.242164
 21
222.707281
 31
0.0
  0
LINE
  5
1f2
100
AcDbEntity
  8
Calque_2
 62
7
100
AcDbLine
 10
128.055610
 20
252.555676
 30
0.0
 11
133.002762
 21
252.555676
 31
0.0
  0
SPLINE
  5
1f3
100
AcDbEntity
  8
Calque_2
 62
7
100
AcDbSpline
 70
0
 71
3
 72
13
 73
9
 74
7
 40
0.000000
 40
0.000000
 40
0.000000
 40
0.000000
 40
0.443686
 40
0.883701
 40
1.327388
 40
1.771074
 40
2.211089
 40
2.654775
 40
2.654775
 40
2.654775
 40
2.654775
 10
103.043677
 20
220.631441
 30
0.0
 10
103.016201
 20
220.777639
 30
0.0
 10
102.961476
 20
221.068825
 30
0.0
 10
103.026288
 20
221.514060
 30
0.0
 10
103.195581
 20
221.927632
 30
0.0
 10
103.469098
 20
222.281030
 30
0.0
 10
103.822278
 20
222.559777
 30
0.0
 10
104.101814
 20
222.657977
 30
0.0
 10
104.242164
 20
222.707281
 30
0.0
 11
103.043677
 21
220.631441
 31
0.0
 11
102.985920
 21
221.071352
 31
0.0
 11
103.043354
 21
221.507603
 31
0.0
 11
103.213000
 21
221.917576
 31
0.0
 11
103.483224
 21
222.269480
 31
0.0
 11
103.832311
 21
222.537344
 31
0.0
 11
104.242164
 21
222.707281
 31
0.0
  0
LINE
  5
1f4
100
AcDbEntity
  8
Calque_2
 62
7
100
AcDbLine
 10
134.666892
 20
250.891547
 30
0.0
 11
134.666892
 21
243.998233
 31
0.0
  0
SPLINE
  5
1f5
100
AcDbEntity
  8
Calque_2
 62
7
100
AcDbSpline
 70
0
 71
3
 72
13
 73
9
 74
7
 40
0.000000
 40
0.000000
 40
0.000000
 40
0.000000
 40
0.435627
 40
0.867650
 40
1.303277
 40
1.738904
 40
2.170927
 40
2.606554
 40
2.606554
 40
2.606554
 40
2.606554
 10
133.002762
 20
252.555676
 30
0.0
 10
133.148395
 20
252.544583
 30
0.0
 10
133.438457
 20
252.522487
 30
0.0
 10
133.844240
 20
252.347878
 30
0.0
 10
134.193443
 20
252.082228
 30
0.0
 10
134.459094
 20
251.733025
 30
0.0
 10
134.633703
 20
251.327241
 30
0.0
 10
134.655798
 20
251.037180
 30
0.0
 10
134.666892
 20
250.891547
 30
0.0
 11
133.002762
 21
252.555676
 31
0.0
 11
133.434642
 21
252.498662
 31
0.0
 11
133.833779
 21
252.333334
 31
0.0
 11
134.179479
 21
252.068264
 31
0.0
 11
134.444550
 21
251.722563
 31
0.0
 11
134.609878
 21
251.323427
 31
0.0
 11
134.666892
 21
250.891547
 31
0.0
  0
LINE
  5
1f6
100
AcDbEntity
  8
Calque_2
 62
7
100
AcDbLine
 10
133.002762
 20
242.334104
 30
0.0
 11
128.055610
 21
242.334104
 31
0.0
  0
SPLINE
  5
1f7
100
AcDbEntity
  8
Calque_2
 62
7
100
AcDbSpline
 70
0
 71
3
 72
13
 73
9
 74
7
 40
0.000000
 40
0.000000
 40
0.000000
 40
0.000000
 40
0.435627
 40
0.867650
 40
1.303277
 40
1.738904
 40
2.170927
 40
2.606554
 40
2.606554
 40
2.606554
 40
2.606554
 10
134.666892
 20
243.998233
 30
0.0
 10
134.655798
 20
243.852600
 30
0.0
 10
134.633703
 20
243.562539
 30
0.0
 10
134.459094
 20
243.156755
 30
0.0
 10
134.193443
 20
242.807552
 30
0.0
 10
133.844240
 20
242.541902
 30
0.0
 10
133.438457
 20
242.367293
 30
0.0
 10
133.148395
 20
242.345197
 30
0.0
 10
133.002762
 20
242.334104
 30
0.0
 11
134.666892
 21
243.998233
 31
0.0
 11
134.609878
 21
243.566353
 31
0.0
 11
134.444550
 21
243.167217
 31
0.0
 11
134.179479
 21
242.821516
 31
0.0
 11
133.833779
 21
242.556446
 31
0.0
 11
133.434642
 21
242.391118
 31
0.0
 11
133.002762
 21
242.334104
 31
0.0
  0
LINE
  5
1f8
100
AcDbEntity
  8
Calque_2
 62
7
100
AcDbLine
 10
126.391480
 20
243.998233
 30
0.0
 11
126.391480
 21
250.891547
 31
0.0
  0
SPLINE
  5
1f9
100
AcDbEntity
  8
Calque_2
 62
7
100
AcDbSpline
 70
0
 71
3
 72
13
 73
9
 74
7
 40
0.000000
 40
0.000000
 40
0.000000
 40
0.000000
 40
0.435627
 40
0.867650
 40
1.303277
 40
1.738904
 40
2.170927
 40
2.606554
 40
2.606554
 40
2.606554
 40
2.606554
 10
128.055610
 20
242.334104
 30
0.0
 10
127.909976
 20
242.345197
 30
0.0
 10
127.619915
 20
242.367293
 30
0.0
 10
127.214131
 20
242.541902
 30
0.0
 10
126.864928
 20
242.807552
 30
0.0
 10
126.599278
 20
243.156755
 30
0.0
 10
126.424669
 20
243.562539
 30
0.0
 10
126.402573
 20
243.852600
 30
0.0
 10
126.391480
 20
243.998233
 30
0.0
 11
128.055610
 21
242.334104
 31
0.0
 11
127.623729
 21
242.391118
 31
0.0
 11
127.224593
 21
242.556446
 31
0.0
 11
126.878892
 21
242.821516
 31
0.0
 11
126.613822
 21
243.167217
 31
0.0
 11
126.448494
 21
243.566353
 31
0.0
 11
126.391480
 21
243.998233
 31
0.0
  0
LINE
  5
1fa
100
AcDbEntity
  8
Calque_2
 62
7
100
AcDbLine
 10
128.055610
 20
252.555676
 30
0.0
 11
128.055610
 21
252.555676
 31
0.0
  0
LINE
  5
1fb
100
AcDbEntity
  8
Calque_2
 62
7
100
AcDbLine
 10
104.961112
 20
103.561425
 30
0.0
 11
104.896359
 21
103.626178
 31
0.0
  0
SPLINE
  5
1fc
100
AcDbEntity
  8
Calque_2
 62
7
100
AcDbSpline
 70
0
 71
3
 72
13
 73
9
 74
7
 40
0.000000
 40
0.000000
 40
0.000000
 40
0.000000
 40
0.435627
 40
0.867650
 40
1.303277
 40
1.738904
 40
2.170927
 40
2.606554
 40
2.606554
 40
2.606554
 40
2.606554
 10
126.391480
 20
250.891547
 30
0.0
 10
126.402573
 20
251.037180
 30
0.0
 10
126.424669
 20
251.327241
 30
0.0
 10
126.599278
 20
251.733025
 30
0.0
 10
126.864928
 20
252.082228
 30
0.0
 10
127.214131
 20
252.347878
 30
0.0
 10
127.619915
 20
252.522487
 30
0.0
 10
127.909976
 20
252.544583
 30
0.0
 10
128.055610
 20
252.555676
 30
0.0
 11
126.391480
 21
250.891547
 31
0.0
 11
126.448494
 21
251.323427
 31
0.0
 11
126.613822
 21
251.722563
 31
0.0
 11
126.878892
 21
252.068264
 31
0.0
 11
127.224593
 21
252.333334
 31
0.0
 11
127.623729
 21
252.498662
 31
0.0
 11
128.055610
 21
252.555676
 31
0.0
  0
LINE
  5
1fd
100
AcDbEntity
  8
Calque_2
 62
7
100
AcDbLine
 10
104.896359
 20
105.011936
 30
0.0
 11
107.766468
 21
107.882045
 31
0.0
  0
SPLINE
  5
1fe
100
AcDbEntity
  8
Calque_2
 62
7
100
AcDbSpline
 70
0
 71
3
 72
13
 73
9
 74
7
 40
0.000000
 40
0.000000
 40
0.000000
 40
0.000000
 40
0.256508
 40
0.510893
 40
0.767400
 40
1.023908
 40
1.278293
 40
1.534801
 40
1.534801
 40
1.534801
 40
1.534801
 10
104.896359
 20
103.626178
 30
0.0
 10
104.840342
 20
103.691433
 30
0.0
 10
104.728771
 20
103.821403
 30
0.0
 10
104.632519
 20
104.063056
 30
0.0
 10
104.597731
 20
104.319057
 30
0.0
 10
104.632519
 20
104.575058
 30
0.0
 10
104.728771
 20
104.816711
 30
0.0
 10
104.840342
 20
104.946681
 30
0.0
 10
104.896359
 20
105.011936
 30
0.0
 11
104.896359
 21
103.626178
 31
0.0
 11
104.740279
 21
103.829735
 31
0.0
 11
104.642931
 21
104.064756
 31
0.0
 11
104.609359
 21
104.319057
 31
0.0
 11
104.642931
 21
104.573358
 31
0.0
 11
104.740279
 21
104.808379
 31
0.0
 11
104.896359
 21
105.011936
 31
0.0
  0
LINE
  5
1ff
100
AcDbEntity
  8
Calque_2
 62
7
100
AcDbLine
 10
109.152226
 20
107.882045
 30
0.0
 11
109.216979
 21
107.817292
 31
0.0
  0
SPLINE
  5
200
100
AcDbEntity
  8
Calque_2
 62
7
100
AcDbSpline
 70
0
 71
3
 72
13
 73
9
 74
7
 40
0.000000
 40
0.000000
 40
0.000000
 40
0.000000
 40
0.256508
 40
0.510893
 40
0.767400
 40
1.023908
 40
1.278293
 40
1.534801
 40
1.534801
 40
1.534801
 40
1.534801
 10
107.766468
 20
107.882045
 30
0.0
 10
107.831723
 20
107.938062
 30
0.0
 10
107.961693
 20
108.049633
 30
0.0
 10
108.203346
 20
108.145885
 30
0.0
 10
108.459347
 20
108.180673
 30
0.0
 10
108.715348
 20
108.145885
 30
0.0
 10
108.957001
 20
108.049633
 30
0.0
 10
109.086971
 20
107.938062
 30
0.0
 10
109.152226
 20
107.882045
 30
0.0
 11
107.766468
 21
107.882045
 31
0.0
 11
107.970024
 21
108.038124
 31
0.0
 11
108.205046
 21
108.135473
 31
0.0
 11
108.459347
 21
108.169045
 31
0.0
 11
108.713648
 21
108.135473
 31
0.0
 11
108.948669
 21
108.038124
 31
0.0
 11
109.152226
 21
107.882045
 31
0.0
  0
LINE
  5
201
100
AcDbEntity
  8
Calque_2
 62
7
100
AcDbLine
 10
109.216979
 20
106.431534
 30
0.0
 11
106.346870
 21
103.561425
 31
0.0
  0
SPLINE
  5
202
100
AcDbEntity
  8
Calque_2
 62
7
100
AcDbSpline
 70
0
 71
3
 72
13
 73
9
 74
7
 40
0.000000
 40
0.000000
 40
0.000000
 40
0.000000
 40
0.256508
 40
0.510893
 40
0.767400
 40
1.023908
 40
1.278293
 40
1.534801
 40
1.534801
 40
1.534801
 40
1.534801
 10
109.216979
 20
107.817292
 30
0.0
 10
109.272996
 20
107.752037
 30
0.0
 10
109.384567
 20
107.622067
 30
0.0
 10
109.480819
 20
107.380414
 30
0.0
 10
109.515607
 20
107.124413
 30
0.0
 10
109.480819
 20
106.868412
 30
0.0
 10
109.384567
 20
106.626759
 30
0.0
 10
109.272996
 20
106.496789
 30
0.0
 10
109.216979
 20
106.431534
 30
0.0
 11
109.216979
 21
107.817292
 31
0.0
 11
109.373058
 21
107.613735
 31
0.0
 11
109.470407
 21
107.378714
 31
0.0
 11
109.503979
 21
107.124413
 31
0.0
 11
109.470407
 21
106.870112
 31
0.0
 11
109.373058
 21
106.635090
 31
0.0
 11
109.216979
 21
106.431534
 31
0.0
  0
LINE
  5
203
100
AcDbEntity
  8
Calque_2
 62
7
100
AcDbLine
 10
104.961112
 20
103.561425
 30
0.0
 11
104.961112
 21
103.561425
 31
0.0
  0
LINE
  5
204
100
AcDbEntity
  8
Calque_2
 62
7
100
AcDbLine
 10
71.931462
 20
95.063821
 30
0.0
 11
71.509522
 21
95.794642
 31
0.0
  0
SPLINE
  5
205
100
AcDbEntity
  8
Calque_2
 62
7
100
AcDbSpline
 70
0
 71
3
 72
13
 73
9
 74
7
 40
0.000000
 40
0.000000
 40
0.000000
 40
0.000000
 40
0.256508
 40
0.510893
 40
0.767400
 40
1.023908
 40
1.278293
 40
1.534801
 40
1.534801
 40
1.534801
 40
1.534801
 10
106.346870
 20
103.561425
 30
0.0
 10
106.281615
 20
103.505408
 30
0.0
 10
106.151645
 20
103.393837
 30
0.0
 10
105.909992
 20
103.297585
 30
0.0
 10
105.653991
 20
103.262797
 30
0.0
 10
105.397990
 20
103.297585
 30
0.0
 10
105.156337
 20
103.393837
 30
0.0
 10
105.026367
 20
103.505408
 30
0.0
 10
104.961112
 20
103.561425
 30
0.0
 11
106.346870
 21
103.561425
 31
0.0
 11
106.143313
 21
103.405345
 31
0.0
 11
105.908292
 21
103.307997
 31
0.0
 11
105.653991
 21
103.274425
 31
0.0
 11
105.399690
 21
103.307997
 31
0.0
 11
105.164669
 21
103.405345
 31
0.0
 11
104.961112
 21
103.561425
 31
0.0
  0
LINE
  5
206
100
AcDbEntity
  8
Calque_2
 62
7
100
AcDbLine
 10
72.105433
 20
98.018610
 30
0.0
 11
77.945816
 21
101.390556
 31
0.0
  0
SPLINE
  5
207
100
AcDbEntity
  8
Calque_2
 62
7
100
AcDbSpline
 70
0
 71
3
 72
13
 73
9
 74
7
 40
0.000000
 40
0.000000
 40
0.000000
 40
0.000000
 40
0.426185
 40
0.848842
 40
1.275027
 40
1.701211
 40
2.123869
 40
2.550054
 40
2.550054
 40
2.550054
 40
2.550054
 10
71.509522
 20
95.794642
 30
0.0
 10
71.447683
 20
95.923457
 30
0.0
 10
71.324516
 20
96.180020
 30
0.0
 10
71.273961
 20
96.609234
 30
0.0
 10
71.328217
 20
97.035043
 30
0.0
 10
71.494134
 20
97.430933
 30
0.0
 10
71.752524
 20
97.777365
 30
0.0
 10
71.987471
 20
97.937972
 30
0.0
 10
72.105433
 20
98.018610
 30
0.0
 11
71.509522
 21
95.794642
 31
0.0
 11
71.346568
 21
96.188443
 31
0.0
 11
71.291400
 21
96.607485
 31
0.0
 11
71.346879
 21
97.030043
 31
0.0
 11
71.510112
 21
97.423728
 31
0.0
 11
71.767410
 21
97.759045
 31
0.0
 11
72.105433
 21
98.018610
 31
0.0
  0
LINE
  5
208
100
AcDbEntity
  8
Calque_2
 62
7
100
AcDbLine
 10
80.169783
 20
100.794646
 30
0.0
 11
80.591723
 21
100.063825
 31
0.0
  0
SPLINE
  5
209
100
AcDbEntity
  8
Calque_2
 62
7
100
AcDbSpline
 70
0
 71
3
 72
13
 73
9
 74
7
 40
0.000000
 40
0.000000
 40
0.000000
 40
0.000000
 40
0.426185
 40
0.848842
 40
1.275027
 40
1.701211
 40
2.123869
 40
2.550054
 40
2.550054
 40
2.550054
 40
2.550054
 10
77.945816
 20
101.390556
 30
0.0
 10
78.074630
 20
101.452396
 30
0.0
 10
78.331194
 20
101.575562
 30
0.0
 10
78.760407
 20
101.626118
 30
0.0
 10
79.186217
 20
101.571862
 30
0.0
 10
79.582107
 20
101.405944
 30
0.0
 10
79.928539
 20
101.147555
 30
0.0
 10
80.089146
 20
100.912608
 30
0.0
 10
80.169783
 20
100.794646
 30
0.0
 11
77.945816
 21
101.390556
 31
0.0
 11
78.339617
 21
101.553510
 31
0.0
 11
78.758658
 21
101.608678
 31
0.0
 11
79.181217
 21
101.553200
 31
0.0
 11
79.574902
 21
101.389967
 31
0.0
 11
79.910219
 21
101.132669
 31
0.0
 11
80.169783
 21
100.794646
 31
0.0
  0
LINE
  5
20a
100
AcDbEntity
  8
Calque_2
 62
7
100
AcDbLine
 10
79.995813
 20
97.839857
 30
0.0
 11
74.155430
 21
94.467910
 31
0.0
  0
SPLINE
  5
20b
100
AcDbEntity
  8
Calque_2
 62
7
100
AcDbSpline
 70
0
 71
3
 72
13
 73
9
 74
7
 40
0.000000
 40
0.000000
 40
0.000000
 40
0.000000
 40
0.426185
 40
0.848842
 40
1.275027
 40
1.701211
 40
2.123869
 40
2.550054
 40
2.550054
 40
2.550054
 40
2.550054
 10
80.591723
 20
100.063825
 30
0.0
 10
80.653563
 20
99.935010
 30
0.0
 10
80.776729
 20
99.678446
 30
0.0
 10
80.827285
 20
99.249233
 30
0.0
 10
80.773029
 20
98.823423
 30
0.0
 10
80.607111
 20
98.427533
 30
0.0
 10
80.348722
 20
98.081101
 30
0.0
 10
80.113775
 20
97.920494
 30
0.0
 10
79.995813
 20
97.839857
 30
0.0
 11
80.591723
 21
100.063825
 31
0.0
 11
80.754677
 21
99.670024
 31
0.0
 11
80.809845
 21
99.250982
 31
0.0
 11
80.754367
 21
98.828424
 31
0.0
 11
80.591133
 21
98.434738
 31
0.0
 11
80.333836
 21
98.099421
 31
0.0
 11
79.995813
 21
97.839857
 31
0.0
  0
LINE
  5
20c
100
AcDbEntity
  8
Calque_2
 62
7
100
AcDbLine
 10
71.931462
 20
95.063821
 30
0.0
 11
71.931462
 21
95.063821
 31
0.0
  0
LINE
  5
20d
100
AcDbEntity
  8
Calque_2
 62
7
100
AcDbLine
 10
37.844659
 20
103.267007
 30
0.0
 11
37.154055
 21
105.844378
 31
0.0
  0
SPLINE
  5
20e
100
AcDbEntity
  8
Calque_2
 62
7
100
AcDbSpline
 70
0
 71
3
 72
13
 73
9
 74
7
 40
0.000000
 40
0.000000
 40
0.000000
 40
0.000000
 40
0.426185
 40
0.848842
 40
1.275027
 40
1.701211
 40
2.123869
 40
2.550054
 40
2.550054
 40
2.550054
 40
2.550054
 10
74.155430
 20
94.467910
 30
0.0
 10
74.026615
 20
94.406071
 30
0.0
 10
73.770052
 20
94.282904
 30
0.0
 10
73.340838
 20
94.232349
 30
0.0
 10
72.915029
 20
94.286605
 30
0.0
 10
72.519139
 20
94.452522
 30
0.0
 10
72.172707
 20
94.710911
 30
0.0
 10
72.012100
 20
94.945859
 30
0.0
 10
71.931462
 20
95.063821
 30
0.0
 11
74.155430
 21
94.467910
 31
0.0
 11
73.761629
 21
94.304956
 31
0.0
 11
73.342587
 21
94.249788
 31
0.0
 11
72.920029
 21
94.305267
 31
0.0
 11
72.526344
 21
94.468500
 31
0.0
 11
72.191027
 21
94.725798
 31
0.0
 11
71.931462
 21
95.063821
 31
0.0
  0
LINE
  5
20f
100
AcDbEntity
  8
Calque_2
 62
7
100
AcDbLine
 10
38.352541
 20
107.920217
 30
0.0
 11
45.134151
 21
109.737344
 31
0.0
  0
SPLINE
  5
210
100
AcDbEntity
  8
Calque_2
 62
7
100
AcDbSpline
 70
0
 71
3
 72
13
 73
9
 74
7
 40
0.000000
 40
0.000000
 40
0.000000
 40
0.000000
 40
0.443686
 40
0.883701
 40
1.327388
 40
1.771074
 40
2.211089
 40
2.654775
 40
2.654775
 40
2.654775
 40
2.654775
 10
37.154055
 20
105.844378
 30
0.0
 10
37.126579
 20
105.990576
 30
0.0
 10
37.071853
 20
106.281761
 30
0.0
 10
37.136666
 20
106.726997
 30
0.0
 10
37.305959
 20
107.140569
 30
0.0
 10
37.579476
 20
107.493967
 30
0.0
 10
37.932655
 20
107.772714
 30
0.0
 10
38.212192
 20
107.870914
 30
0.0
 10
38.352541
 20
107.920217
 30
0.0
 11
37.154055
 21
105.844378
 31
0.0
 11
37.096298
 21
106.284289
 31
0.0
 11
37.153732
 21
106.720539
 31
0.0
 11
37.323378
 21
107.130512
 31
0.0
 11
37.593602
 21
107.482417
 31
0.0
 11
37.942689
 21
107.750281
 31
0.0
 11
38.352541
 21
107.920217
 31
0.0
  0
LINE
  5
211
100
AcDbEntity
  8
Calque_2
 62
7
100
AcDbLine
 10
47.209991
 20
108.538858
 30
0.0
 11
47.900595
 21
105.961487
 31
0.0
  0
SPLINE
  5
212
100
AcDbEntity
  8
Calque_2
 62
7
100
AcDbSpline
 70
0
 71
3
 72
13
 73
9
 74
7
 40
0.000000
 40
0.000000
 40
0.000000
 40
0.000000
 40
0.443686
 40
0.883701
 40
1.327388
 40
1.771074
 40
2.211089
 40
2.654775
 40
2.654775
 40
2.654775
 40
2.654775
 10
45.134151
 20
109.737344
 30
0.0
 10
45.280349
 20
109.764821
 30
0.0
 10
45.571535
 20
109.819546
 30
0.0
 10
46.016771
 20
109.754733
 30
0.0
 10
46.430342
 20
109.585440
 30
0.0
 10
46.783741
 20
109.311923
 30
0.0
 10
47.062488
 20
108.958744
 30
0.0
 10
47.160687
 20
108.679207
 30
0.0
 10
47.209991
 20
108.538858
 30
0.0
 11
45.134151
 21
109.737344
 31
0.0
 11
45.574062
 21
109.795101
 31
0.0
 11
46.010313
 21
109.737668
 31
0.0
 11
46.420286
 21
109.568021
 31
0.0
 11
46.772190
 21
109.297797
 31
0.0
 11
47.040054
 21
108.948710
 31
0.0
 11
47.209991
 21
108.538858
 31
0.0
  0
LINE
  5
213
100
AcDbEntity
  8
Calque_2
 62
7
100
AcDbLine
 10
46.702109
 20
103.885648
 30
0.0
 11
39.920499
 21
102.068521
 31
0.0
  0
SPLINE
  5
214
100
AcDbEntity
  8
Calque_2
 62
7
100
AcDbSpline
 70
0
 71
3
 72
13
 73
9
 74
7
 40
0.000000
 40
0.000000
 40
0.000000
 40
0.000000
 40
0.443686
 40
0.883701
 40
1.327388
 40
1.771074
 40
2.211089
 40
2.654775
 40
2.654775
 40
2.654775
 40
2.654775
 10
47.900595
 20
105.961487
 30
0.0
 10
47.928071
 20
105.815289
 30
0.0
 10
47.982797
 20
105.524104
 30
0.0
 10
47.917984
 20
105.078868
 30
0.0
 10
47.748691
 20
104.665296
 30
0.0
 10
47.475174
 20
104.311898
 30
0.0
 10
47.121995
 20
104.033151
 30
0.0
 10
46.842458
 20
103.934951
 30
0.0
 10
46.702109
 20
103.885648
 30
0.0
 11
47.900595
 21
105.961487
 31
0.0
 11
47.958352
 21
105.521576
 31
0.0
 11
47.900918
 21
105.085326
 31
0.0
 11
47.731272
 21
104.675353
 31
0.0
 11
47.461048
 21
104.323448
 31
0.0
 11
47.111961
 21
104.055584
 31
0.0
 11
46.702109
 21
103.885648
 31
0.0
  0
LINE
  5
215
100
AcDbEntity
  8
Calque_2
 62
7
100
AcDbLine
 10
37.844659
 20
103.267007
 30
0.0
 11
37.844659
 21
103.267007
 31
0.0
  0
LINE
  5
216
100
AcDbEntity
  8
Calque_2
 62
7
100
AcDbLine
 10
7.996275
 20
127.080440
 30
0.0
 11
7.996275
 21
132.027592
 31
0.0
  0
SPLINE
  5
217
100
AcDbEntity
  8
Calque_2
 62
7
100
AcDbSpline
 70
0
 71
3
 72
13
 73
9
 74
7
 40
0.000000
 40
0.000000
 40
0.000000
 40
0.000000
 40
0.443686
 40
0.883701
 40
1.327388
 40
1.771074
 40
2.211089
 40
2.654775
 40
2.654775
 40
2.654775
 40
2.654775
 10
39.920499
 20
102.068521
 30
0.0
 10
39.774301
 20
102.041044
 30
0.0
 10
39.483115
 20
101.986319
 30
0.0
 10
39.037879
 20
102.051132
 30
0.0
 10
38.624308
 20
102.220425
 30
0.0
 10
38.270909
 20
102.493942
 30
0.0
 10
37.992162
 20
102.847121
 30
0.0
 10
37.893963
 20
103.126658
 30
0.0
 10
37.844659
 20
103.267007
 30
0.0
 11
39.920499
 21
102.068521
 31
0.0
 11
39.480588
 21
102.010764
 31
0.0
 11
39.044337
 21
102.068197
 31
0.0
 11
38.634364
 21
102.237844
 31
0.0
 11
38.282460
 21
102.508068
 31
0.0
 11
38.014596
 21
102.857155
 31
0.0
 11
37.844659
 21
103.267007
 31
0.0
  0
LINE
  5
218
100
AcDbEntity
  8
Calque_2
 62
7
100
AcDbLine
 10
9.660405
 20
133.691722
 30
0.0
 11
16.553718
 21
133.691722
 31
0.0
  0
SPLINE
  5
219
100
AcDbEntity
  8
Calque_2
 62
7
100
AcDbSpline
 70
0
 71
3
 72
13
 73
9
 74
7
 40
0.000000
 40
0.000000
 40
0.000000
 40
0.000000
 40
0.435627
 40
0.867650
 40
1.303277
 40
1.738904
 40
2.170927
 40
2.606554
 40
2.606554
 40
2.606554
 40
2.606554
 10
7.996275
 20
132.027592
 30
0.0
 10
8.007369
 20
132.173225
 30
0.0
 10
8.029464
 20
132.463287
 30
0.0
 10
8.204073
 20
132.869070
 30
0.0
 10
8.469724
 20
133.218273
 30
0.0
 10
8.818927
 20
133.483924
 30
0.0
 10
9.224710
 20
133.658533
 30
0.0
 10
9.514772
 20
133.680628
 30
0.0
 10
9.660405
 20
133.691722
 30
0.0
 11
7.996275
 21
132.027592
 31
0.0
 11
8.053289
 21
132.459472
 31
0.0
 11
8.218617
 21
132.858609
 31
0.0
 11
8.483688
 21
133.204309
 31
0.0
 11
8.829388
 21
133.469380
 31
0.0
 11
9.228525
 21
133.634708
 31
0.0
 11
9.660405
 21
133.691722
 31
0.0
  0
LINE
  5
21a
100
AcDbEntity
  8
Calque_2
 62
7
100
AcDbLine
 10
18.217847
 20
132.027592
 30
0.0
 11
18.217847
 21
127.080440
 31
0.0
  0
SPLINE
  5
21b
100
AcDbEntity
  8
Calque_2
 62
7
100
AcDbSpline
 70
0
 71
3
 72
13
 73
9
 74
7
 40
0.000000
 40
0.000000
 40
0.000000
 40
0.000000
 40
0.435627
 40
0.867650
 40
1.303277
 40
1.738904
 40
2.170927
 40
2.606554
 40
2.606554
 40
2.606554
 40
2.606554
 10
16.553718
 20
133.691722
 30
0.0
 10
16.699351
 20
133.680628
 30
0.0
 10
16.989413
 20
133.658533
 30
0.0
 10
17.395196
 20
133.483924
 30
0.0
 10
17.744399
 20
133.218273
 30
0.0
 10
18.010050
 20
132.869070
 30
0.0
 10
18.184659
 20
132.463287
 30
0.0
 10
18.206754
 20
132.173225
 30
0.0
 10
18.217847
 20
132.027592
 30
0.0
 11
16.553718
 21
133.691722
 31
0.0
 11
16.985598
 21
133.634708
 31
0.0
 11
17.384735
 21
133.469380
 31
0.0
 11
17.730435
 21
133.204309
 31
0.0
 11
17.995506
 21
132.858609
 31
0.0
 11
18.160833
 21
132.459472
 31
0.0
 11
18.217847
 21
132.027592
 31
0.0
  0
LINE
  5
21c
100
AcDbEntity
  8
Calque_2
 62
7
100
AcDbLine
 10
16.553718
 20
125.416310
 30
0.0
 11
9.660405
 21
125.416310
 31
0.0
  0
SPLINE
  5
21d
100
AcDbEntity
  8
Calque_2
 62
7
100
AcDbSpline
 70
0
 71
3
 72
13
 73
9
 74
7
 40
0.000000
 40
0.000000
 40
0.000000
 40
0.000000
 40
0.435627
 40
0.867650
 40
1.303277
 40
1.738904
 40
2.170927
 40
2.606554
 40
2.606554
 40
2.606554
 40
2.606554
 10
18.217847
 20
127.080440
 30
0.0
 10
18.206754
 20
126.934806
 30
0.0
 10
18.184659
 20
126.644745
 30
0.0
 10
18.010050
 20
126.238961
 30
0.0
 10
17.744399
 20
125.889758
 30
0.0
 10
17.395196
 20
125.624108
 30
0.0
 10
16.989413
 20
125.449499
 30
0.0
 10
16.699351
 20
125.427403
 30
0.0
 10
16.553718
 20
125.416310
 30
0.0
 11
18.217847
 21
127.080440
 31
0.0
 11
18.160833
 21
126.648559
 31
0.0
 11
17.995506
 21
126.249423
 31
0.0
 11
17.730435
 21
125.903722
 31
0.0
 11
17.384735
 21
125.638652
 31
0.0
 11
16.985598
 21
125.473324
 31
0.0
 11
16.553718
 21
125.416310
 31
0.0
  0
LINE
  5
21e
100
AcDbEntity
  8
Calque_2
 62
7
100
AcDbLine
 10
7.996275
 20
127.080440
 30
0.0
 11
7.996275
 21
127.080440
 31
0.0
  0
LINE
  5
21f
100
AcDbEntity
  8
Calque_2
 62
7
100
AcDbLine
 10
156.990513
 20
103.985948
 30
0.0
 11
156.925760
 21
103.921196
 31
0.0
  0
SPLINE
  5
220
100
AcDbEntity
  8
Calque_2
 62
7
100
AcDbSpline
 70
0
 71
3
 72
13
 73
9
 74
7
 40
0.000000
 40
0.000000
 40
0.000000
 40
0.000000
 40
0.435627
 40
0.867650
 40
1.303277
 40
1.738904
 40
2.170927
 40
2.606554
 40
2.606554
 40
2.606554
 40
2.606554
 10
9.660405
 20
125.416310
 30
0.0
 10
9.514772
 20
125.427403
 30
0.0
 10
9.224710
 20
125.449499
 30
0.0
 10
8.818927
 20
125.624108
 30
0.0
 10
8.469724
 20
125.889758
 30
0.0
 10
8.204073
 20
126.238961
 30
0.0
 10
8.029464
 20
126.644745
 30
0.0
 10
8.007369
 20
126.934806
 30
0.0
 10
7.996275
 20
127.080440
 30
0.0
 11
9.660405
 21
125.416310
 31
0.0
 11
9.228525
 21
125.473324
 31
0.0
 11
8.829388
 21
125.638652
 31
0.0
 11
8.483688
 21
125.903722
 31
0.0
 11
8.218617
 21
126.249423
 31
0.0
 11
8.053289
 21
126.648559
 31
0.0
 11
7.996275
 21
127.080440
 31
0.0
  0
LINE
  5
221
100
AcDbEntity
  8
Calque_2
 62
7
100
AcDbLine
 10
155.540002
 20
103.921196
 30
0.0
 11
152.669893
 21
106.791304
 31
0.0
  0
SPLINE
  5
222
100
AcDbEntity
  8
Calque_2
 62
7
100
AcDbSpline
 70
0
 71
3
 72
13
 73
9
 74
7
 40
0.000000
 40
0.000000
 40
0.000000
 40
0.000000
 40
0.256508
 40
0.510893
 40
0.767400
 40
1.023908
 40
1.278293
 40
1.534801
 40
1.534801
 40
1.534801
 40
1.534801
 10
156.925760
 20
103.921196
 30
0.0
 10
156.860505
 20
103.865179
 30
0.0
 10
156.730535
 20
103.753608
 30
0.0
 10
156.488882
 20
103.657356
 30
0.0
 10
156.232881
 20
103.622568
 30
0.0
 10
155.976880
 20
103.657356
 30
0.0
 10
155.735227
 20
103.753608
 30
0.0
 10
155.605257
 20
103.865179
 30
0.0
 10
155.540002
 20
103.921196
 30
0.0
 11
156.925760
 21
103.921196
 31
0.0
 11
156.722204
 21
103.765116
 31
0.0
 11
156.487182
 21
103.667767
 31
0.0
 11
156.232881
 21
103.634196
 31
0.0
 11
155.978580
 21
103.667767
 31
0.0
 11
155.743559
 21
103.765116
 31
0.0
 11
155.540002
 21
103.921196
 31
0.0
  0
LINE
  5
223
100
AcDbEntity
  8
Calque_2
 62
7
100
AcDbLine
 10
152.669893
 20
108.177062
 30
0.0
 11
152.734646
 21
108.241815
 31
0.0
  0
SPLINE
  5
224
100
AcDbEntity
  8
Calque_2
 62
7
100
AcDbSpline
 70
0
 71
3
 72
13
 73
9
 74
7
 40
0.000000
 40
0.000000
 40
0.000000
 40
0.000000
 40
0.256508
 40
0.510893
 40
0.767400
 40
1.023908
 40
1.278293
 40
1.534801
 40
1.534801
 40
1.534801
 40
1.534801
 10
152.669893
 20
106.791304
 30
0.0
 10
152.613876
 20
106.856559
 30
0.0
 10
152.502305
 20
106.986529
 30
0.0
 10
152.406053
 20
107.228182
 30
0.0
 10
152.371265
 20
107.484183
 30
0.0
 10
152.406053
 20
107.740185
 30
0.0
 10
152.502305
 20
107.981837
 30
0.0
 10
152.613876
 20
108.111807
 30
0.0
 10
152.669893
 20
108.177062
 30
0.0
 11
152.669893
 21
106.791304
 31
0.0
 11
152.513814
 21
106.994861
 31
0.0
 11
152.416465
 21
107.229882
 31
0.0
 11
152.382894
 21
107.484183
 31
0.0
 11
152.416465
 21
107.738485
 31
0.0
 11
152.513814
 21
107.973506
 31
0.0
 11
152.669893
 21
108.177062
 31
0.0
  0
LINE
  5
225
100
AcDbEntity
  8
Calque_2
 62
7
100
AcDbLine
 10
154.120404
 20
108.241815
 30
0.0
 11
156.990513
 21
105.371707
 31
0.0
  0
SPLINE
  5
226
100
AcDbEntity
  8
Calque_2
 62
7
100
AcDbSpline
 70
0
 71
3
 72
13
 73
9
 74
7
 40
0.000000
 40
0.000000
 40
0.000000
 40
0.000000
 40
0.256508
 40
0.510893
 40
0.767400
 40
1.023908
 40
1.278293
 40
1.534801
 40
1.534801
 40
1.534801
 40
1.534801
 10
152.734646
 20
108.241815
 30
0.0
 10
152.799901
 20
108.297832
 30
0.0
 10
152.929871
 20
108.409403
 30
0.0
 10
153.171524
 20
108.505655
 30
0.0
 10
153.427525
 20
108.540443
 30
0.0
 10
153.683526
 20
108.505655
 30
0.0
 10
153.925179
 20
108.409403
 30
0.0
 10
154.055149
 20
108.297832
 30
0.0
 10
154.120404
 20
108.241815
 30
0.0
 11
152.734646
 21
108.241815
 31
0.0
 11
152.938203
 21
108.397895
 31
0.0
 11
153.173224
 21
108.495244
 31
0.0
 11
153.427525
 21
108.528815
 31
0.0
 11
153.681826
 21
108.495244
 31
0.0
 11
153.916848
 21
108.397895
 31
0.0
 11
154.120404
 21
108.241815
 31
0.0
  0
LINE
  5
227
100
AcDbEntity
  8
Calque_2
 62
7
100
AcDbLine
 10
156.990513
 20
103.985948
 30
0.0
 11
156.990513
 21
103.985948
 31
0.0
  0
LINE
  5
228
100
AcDbEntity
  8
Calque_2
 62
7
100
AcDbLine
 10
165.488127
 20
70.956300
 30
0.0
 11
164.757306
 21
70.534361
 31
0.0
  0
SPLINE
  5
229
100
AcDbEntity
  8
Calque_2
 62
7
100
AcDbSpline
 70
0
 71
3
 72
13
 73
9
 74
7
 40
0.000000
 40
0.000000
 40
0.000000
 40
0.000000
 40
0.256508
 40
0.510893
 40
0.767400
 40
1.023908
 40
1.278293
 40
1.534801
 40
1.534801
 40
1.534801
 40
1.534801
 10
156.990513
 20
105.371707
 30
0.0
 10
157.046530
 20
105.306452
 30
0.0
 10
157.158101
 20
105.176482
 30
0.0
 10
157.254353
 20
104.934829
 30
0.0
 10
157.289141
 20
104.678827
 30
0.0
 10
157.254353
 20
104.422826
 30
0.0
 10
157.158101
 20
104.181173
 30
0.0
 10
157.046530
 20
104.051203
 30
0.0
 10
156.990513
 20
103.985948
 30
0.0
 11
156.990513
 21
105.371707
 31
0.0
 11
157.146593
 21
105.168150
 31
0.0
 11
157.243942
 21
104.933129
 31
0.0
 11
157.277513
 21
104.678827
 31
0.0
 11
157.243942
 21
104.424526
 31
0.0
 11
157.146593
 21
104.189505
 31
0.0
 11
156.990513
 21
103.985948
 31
0.0
  0
LINE
  5
22a
100
AcDbEntity
  8
Calque_2
 62
7
100
AcDbLine
 10
162.533338
 20
71.130271
 30
0.0
 11
159.161392
 21
76.970654
 31
0.0
  0
SPLINE
  5
22b
100
AcDbEntity
  8
Calque_2
 62
7
100
AcDbSpline
 70
0
 71
3
 72
10
 73
6
 74
4
 40
0.000000
 40
0.000000
 40
0.000000
 40
0.000000
 40
0.851245
 40
1.677242
 40
2.528487
 40
2.528487
 40
2.528487
 40
2.528487
 10
164.757306
 20
70.534361
 30
0.0
 10
164.487858
 20
70.430502
 30
0.0
 10
163.956955
 20
70.225866
 30
0.0
 10
163.072216
 20
70.462931
 30
0.0
 10
162.714758
 20
70.905603
 30
0.0
 10
162.533338
 20
71.130271
 30
0.0
 11
164.757306
 21
70.534361
 31
0.0
 11
163.934544
 21
70.316003
 31
0.0
 11
163.136692
 21
70.529786
 31
0.0
 11
162.533338
 21
71.130271
 31
0.0
  0
LINE
  5
22c
100
AcDbEntity
  8
Calque_2
 62
7
100
AcDbLine
 10
159.757302
 20
79.194621
 30
0.0
 11
160.488123
 21
79.616561
 31
0.0
  0
SPLINE
  5
22d
100
AcDbEntity
  8
Calque_2
 62
7
100
AcDbSpline
 70
0
 71
3
 72
10
 73
6
 74
4
 40
0.000000
 40
0.000000
 40
0.000000
 40
0.000000
 40
0.851245
 40
1.677242
 40
2.528487
 40
2.528487
 40
2.528487
 40
2.528487
 10
159.161392
 20
76.970654
 30
0.0
 10
159.057533
 20
77.240101
 30
0.0
 10
158.852897
 20
77.771005
 30
0.0
 10
159.089962
 20
78.655744
 30
0.0
 10
159.532634
 20
79.013202
 30
0.0
 10
159.757302
 20
79.194621
 30
0.0
 11
159.161392
 21
76.970654
 31
0.0
 11
158.943034
 21
77.793416
 31
0.0
 11
159.156818
 21
78.591268
 31
0.0
 11
159.757302
 21
79.194621
 31
0.0
  0
LINE
  5
22e
100
AcDbEntity
  8
Calque_2
 62
7
100
AcDbLine
 10
162.712091
 20
79.020651
 30
0.0
 11
166.084038
 21
73.180268
 31
0.0
  0
SPLINE
  5
22f
100
AcDbEntity
  8
Calque_2
 62
7
100
AcDbSpline
 70
0
 71
3
 72
13
 73
9
 74
7
 40
0.000000
 40
0.000000
 40
0.000000
 40
0.000000
 40
0.426185
 40
0.848842
 40
1.275027
 40
1.701211
 40
2.123869
 40
2.550054
 40
2.550054
 40
2.550054
 40
2.550054
 10
160.488123
 20
79.616561
 30
0.0
 10
160.616938
 20
79.678401
 30
0.0
 10
160.873502
 20
79.801567
 30
0.0
 10
161.302715
 20
79.852123
 30
0.0
 10
161.728525
 20
79.797867
 30
0.0
 10
162.124415
 20
79.631949
 30
0.0
 10
162.470847
 20
79.373560
 30
0.0
 10
162.631454
 20
79.138613
 30
0.0
 10
162.712091
 20
79.020651
 30
0.0
 11
160.488123
 21
79.616561
 31
0.0
 11
160.881924
 21
79.779515
 31
0.0
 11
161.300966
 21
79.834683
 31
0.0
 11
161.723524
 21
79.779205
 31
0.0
 11
162.117210
 21
79.615972
 31
0.0
 11
162.452527
 21
79.358674
 31
0.0
 11
162.712091
 21
79.020651
 31
0.0
  0
LINE
  5
230
100
AcDbEntity
  8
Calque_2
 62
7
100
AcDbLine
 10
165.488127
 20
70.956300
 30
0.0
 11
165.488127
 21
70.956300
 31
0.0
  0
LINE
  5
231
100
AcDbEntity
  8
Calque_2
 62
7
100
AcDbLine
 10
157.284930
 20
36.869508
 30
0.0
 11
154.707559
 21
36.178904
 31
0.0
  0
SPLINE
  5
232
100
AcDbEntity
  8
Calque_2
 62
7
100
AcDbSpline
 70
0
 71
3
 72
13
 73
9
 74
7
 40
0.000000
 40
0.000000
 40
0.000000
 40
0.000000
 40
0.426185
 40
0.848842
 40
1.275027
 40
1.701211
 40
2.123869
 40
2.550054
 40
2.550054
 40
2.550054
 40
2.550054
 10
166.084038
 20
73.180268
 30
0.0
 10
166.145877
 20
73.051453
 30
0.0
 10
166.269044
 20
72.794890
 30
0.0
 10
166.319599
 20
72.365676
 30
0.0
 10
166.265343
 20
71.939867
 30
0.0
 10
166.099426
 20
71.543977
 30
0.0
 10
165.841037
 20
71.197545
 30
0.0
 10
165.606089
 20
71.036938
 30
0.0
 10
165.488127
 20
70.956300
 30
0.0
 11
166.084038
 21
73.180268
 31
0.0
 11
166.246992
 21
72.786467
 31
0.0
 11
166.302160
 21
72.367425
 31
0.0
 11
166.246681
 21
71.944867
 31
0.0
 11
166.083448
 21
71.551182
 31
0.0
 11
165.826150
 21
71.215865
 31
0.0
 11
165.488127
 21
70.956300
 31
0.0
  0
LINE
  5
233
100
AcDbEntity
  8
Calque_2
 62
7
100
AcDbLine
 10
152.631720
 20
37.377390
 30
0.0
 11
150.814593
 21
44.159000
 31
0.0
  0
SPLINE
  5
234
100
AcDbEntity
  8
Calque_2
 62
7
100
AcDbSpline
 70
0
 71
3
 72
13
 73
9
 74
7
 40
0.000000
 40
0.000000
 40
0.000000
 40
0.000000
 40
0.443686
 40
0.883701
 40
1.327388
 40
1.771074
 40
2.211089
 40
2.654775
 40
2.654775
 40
2.654775
 40
2.654775
 10
154.707559
 20
36.178904
 30
0.0
 10
154.561362
 20
36.151428
 30
0.0
 10
154.270176
 20
36.096702
 30
0.0
 10
153.824940
 20
36.161515
 30
0.0
 10
153.411368
 20
36.330808
 30
0.0
 10
153.057970
 20
36.604325
 30
0.0
 10
152.779223
 20
36.957504
 30
0.0
 10
152.681024
 20
37.237041
 30
0.0
 10
152.631720
 20
37.377390
 30
0.0
 11
154.707559
 21
36.178904
 31
0.0
 11
154.267648
 21
36.121147
 31
0.0
 11
153.831398
 21
36.178581
 31
0.0
 11
153.421425
 21
36.348227
 31
0.0
 11
153.069521
 21
36.618451
 31
0.0
 11
152.801657
 21
36.967538
 31
0.0
 11
152.631720
 21
37.377390
 31
0.0
  0
LINE
  5
235
100
AcDbEntity
  8
Calque_2
 62
7
100
AcDbLine
 10
152.013079
 20
46.234840
 30
0.0
 11
154.590450
 21
46.925444
 31
0.0
  0
SPLINE
  5
236
100
AcDbEntity
  8
Calque_2
 62
7
100
AcDbSpline
 70
0
 71
3
 72
13
 73
9
 74
7
 40
0.000000
 40
0.000000
 40
0.000000
 40
0.000000
 40
0.443686
 40
0.883701
 40
1.327388
 40
1.771074
 40
2.211089
 40
2.654775
 40
2.654775
 40
2.654775
 40
2.654775
 10
150.814593
 20
44.159000
 30
0.0
 10
150.787117
 20
44.305198
 30
0.0
 10
150.732391
 20
44.596384
 30
0.0
 10
150.797204
 20
45.041620
 30
0.0
 10
150.966497
 20
45.455191
 30
0.0
 10
151.240014
 20
45.808590
 30
0.0
 10
151.593193
 20
46.087337
 30
0.0
 10
151.872730
 20
46.185536
 30
0.0
 10
152.013079
 20
46.234840
 30
0.0
 11
150.814593
 21
44.159000
 31
0.0
 11
150.756836
 21
44.598911
 31
0.0
 11
150.814270
 21
45.035162
 31
0.0
 11
150.983916
 21
45.445135
 31
0.0
 11
151.254140
 21
45.797039
 31
0.0
 11
151.603227
 21
46.064903
 31
0.0
 11
152.013079
 21
46.234840
 31
0.0
  0
LINE
  5
237
100
AcDbEntity
  8
Calque_2
 62
7
100
AcDbLine
 10
156.666290
 20
45.726958
 30
0.0
 11
158.483416
 21
38.945348
 31
0.0
  0
SPLINE
  5
238
100
AcDbEntity
  8
Calque_2
 62
7
100
AcDbSpline
 70
0
 71
3
 72
13
 73
9
 74
7
 40
0.000000
 40
0.000000
 40
0.000000
 40
0.000000
 40
0.443686
 40
0.883701
 40
1.327388
 40
1.771074
 40
2.211089
 40
2.654775
 40
2.654775
 40
2.654775
 40
2.654775
 10
154.590450
 20
46.925444
 30
0.0
 10
154.736648
 20
46.952920
 30
0.0
 10
155.027833
 20
47.007646
 30
0.0
 10
155.473069
 20
46.942833
 30
0.0
 10
155.886641
 20
46.773540
 30
0.0
 10
156.240039
 20
46.500023
 30
0.0
 10
156.518786
 20
46.146844
 30
0.0
 10
156.616986
 20
45.867307
 30
0.0
 10
156.666290
 20
45.726958
 30
0.0
 11
154.590450
 21
46.925444
 31
0.0
 11
155.030361
 21
46.983201
 31
0.0
 11
155.466611
 21
46.925767
 31
0.0
 11
155.876584
 21
46.756121
 31
0.0
 11
156.228489
 21
46.485897
 31
0.0
 11
156.496353
 21
46.136810
 31
0.0
 11
156.666290
 21
45.726958
 31
0.0
  0
LINE
  5
239
100
AcDbEntity
  8
Calque_2
 62
7
100
AcDbLine
 10
157.284930
 20
36.869508
 30
0.0
 11
157.284930
 21
36.869508
 31
0.0
  0
LINE
  5
23a
100
AcDbEntity
  8
Calque_2
 62
7
100
AcDbLine
 10
133.471490
 20
7.021100
 30
0.0
 11
128.524338
 21
7.021100
 31
0.0
  0
SPLINE
  5
23b
100
AcDbEntity
  8
Calque_2
 62
7
100
AcDbSpline
 70
0
 71
3
 72
13
 73
9
 74
7
 40
0.000000
 40
0.000000
 40
0.000000
 40
0.000000
 40
0.443686
 40
0.883701
 40
1.327388
 40
1.771074
 40
2.211089
 40
2.654775
 40
2.654775
 40
2.654775
 40
2.654775
 10
158.483416
 20
38.945348
 30
0.0
 10
158.510893
 20
38.799150
 30
0.0
 10
158.565618
 20
38.507964
 30
0.0
 10
158.500806
 20
38.062728
 30
0.0
 10
158.331512
 20
37.649157
 30
0.0
 10
158.057995
 20
37.295758
 30
0.0
 10
157.704816
 20
37.017011
 30
0.0
 10
157.425279
 20
36.918812
 30
0.0
 10
157.284930
 20
36.869508
 30
0.0
 11
158.483416
 21
38.945348
 31
0.0
 11
158.541173
 21
38.505437
 31
0.0
 11
158.483740
 21
38.069186
 31
0.0
 11
158.314094
 21
37.659213
 31
0.0
 11
158.043870
 21
37.307309
 31
0.0
 11
157.694782
 21
37.039445
 31
0.0
 11
157.284930
 21
36.869508
 31
0.0
  0
LINE
  5
23c
100
AcDbEntity
  8
Calque_2
 62
7
100
AcDbLine
 10
126.860208
 20
8.685229
 30
0.0
 11
126.860208
 21
15.578542
 31
0.0
  0
SPLINE
  5
23d
100
AcDbEntity
  8
Calque_2
 62
7
100
AcDbSpline
 70
0
 71
3
 72
13
 73
9
 74
7
 40
0.000000
 40
0.000000
 40
0.000000
 40
0.000000
 40
0.435627
 40
0.867650
 40
1.303277
 40
1.738904
 40
2.170927
 40
2.606554
 40
2.606554
 40
2.606554
 40
2.606554
 10
128.524338
 20
7.021100
 30
0.0
 10
128.378705
 20
7.032193
 30
0.0
 10
128.088643
 20
7.054289
 30
0.0
 10
127.682860
 20
7.228898
 30
0.0
 10
127.333657
 20
7.494548
 30
0.0
 10
127.068006
 20
7.843751
 30
0.0
 10
126.893397
 20
8.249535
 30
0.0
 10
126.871302
 20
8.539596
 30
0.0
 10
126.860208
 20
8.685229
 30
0.0
 11
128.524338
 21
7.021100
 31
0.0
 11
128.092458
 21
7.078114
 31
0.0
 11
127.693321
 21
7.243442
 31
0.0
 11
127.347621
 21
7.508512
 31
0.0
 11
127.082550
 21
7.854213
 31
0.0
 11
126.917222
 21
8.253349
 31
0.0
 11
126.860208
 21
8.685229
 31
0.0
  0
LINE
  5
23e
100
AcDbEntity
  8
Calque_2
 62
7
100
AcDbLine
 10
128.524338
 20
17.242672
 30
0.0
 11
133.471490
 21
17.242672
 31
0.0
  0
SPLINE
  5
23f
100
AcDbEntity
  8
Calque_2
 62
7
100
AcDbSpline
 70
0
 71
3
 72
13
 73
9
 74
7
 40
0.000000
 40
0.000000
 40
0.000000
 40
0.000000
 40
0.435627
 40
0.867650
 40
1.303277
 40
1.738904
 40
2.170927
 40
2.606554
 40
2.606554
 40
2.606554
 40
2.606554
 10
126.860208
 20
15.578542
 30
0.0
 10
126.871302
 20
15.724176
 30
0.0
 10
126.893397
 20
16.014237
 30
0.0
 10
127.068006
 20
16.420021
 30
0.0
 10
127.333657
 20
16.769224
 30
0.0
 10
127.682860
 20
17.034874
 30
0.0
 10
128.088643
 20
17.209483
 30
0.0
 10
128.378705
 20
17.231579
 30
0.0
 10
128.524338
 20
17.242672
 30
0.0
 11
126.860208
 21
15.578542
 31
0.0
 11
126.917222
 21
16.010423
 31
0.0
 11
127.082550
 21
16.409559
 31
0.0
 11
127.347621
 21
16.755260
 31
0.0
 11
127.693321
 21
17.020330
 31
0.0
 11
128.092458
 21
17.185658
 31
0.0
 11
128.524338
 21
17.242672
 31
0.0
  0
LINE
  5
240
100
AcDbEntity
  8
Calque_2
 62
7
100
AcDbLine
 10
135.135620
 20
15.578542
 30
0.0
 11
135.135620
 21
8.685229
 31
0.0
  0
SPLINE
  5
241
100
AcDbEntity
  8
Calque_2
 62
7
100
AcDbSpline
 70
0
 71
3
 72
13
 73
9
 74
7
 40
0.000000
 40
0.000000
 40
0.000000
 40
0.000000
 40
0.435627
 40
0.867650
 40
1.303277
 40
1.738904
 40
2.170927
 40
2.606554
 40
2.606554
 40
2.606554
 40
2.606554
 10
133.471490
 20
17.242672
 30
0.0
 10
133.617124
 20
17.231579
 30
0.0
 10
133.907185
 20
17.209483
 30
0.0
 10
134.312969
 20
17.034874
 30
0.0
 10
134.662172
 20
16.769224
 30
0.0
 10
134.927822
 20
16.420021
 30
0.0
 10
135.102431
 20
16.014237
 30
0.0
 10
135.124527
 20
15.724176
 30
0.0
 10
135.135620
 20
15.578542
 30
0.0
 11
133.471490
 21
17.242672
 31
0.0
 11
133.903371
 21
17.185658
 31
0.0
 11
134.302507
 21
17.020330
 31
0.0
 11
134.648208
 21
16.755260
 31
0.0
 11
134.913278
 21
16.409559
 31
0.0
 11
135.078606
 21
16.010423
 31
0.0
 11
135.135620
 21
15.578542
 31
0.0
  0
LINE
  5
242
100
AcDbEntity
  8
Calque_2
 62
7
100
AcDbLine
 10
133.471490
 20
7.021100
 30
0.0
 11
133.471490
 21
7.021100
 31
0.0
  0
SPLINE
  5
243
100
AcDbEntity
  8
Calque_2
 62
7
100
AcDbSpline
 70
0
 71
3
 72
13
 73
9
 74
7
 40
0.000000
 40
0.000000
 40
0.000000
 40
0.000000
 40
0.435627
 40
0.867650
 40
1.303277
 40
1.738904
 40
2.170927
 40
2.606554
 40
2.606554
 40
2.606554
 40
2.606554
 10
135.135620
 20
8.685229
 30
0.0
 10
135.124527
 20
8.539596
 30
0.0
 10
135.102431
 20
8.249535
 30
0.0
 10
134.927822
 20
7.843751
 30
0.0
 10
134.662172
 20
7.494548
 30
0.0
 10
134.312969
 20
7.228898
 30
0.0
 10
133.907185
 20
7.054289
 30
0.0
 10
133.617124
 20
7.032193
 30
0.0
 10
133.471490
 20
7.021100
 30
0.0
 11
135.135620
 21
8.685229
 31
0.0
 11
135.078606
 21
8.253349
 31
0.0
 11
134.913278
 21
7.854213
 31
0.0
 11
134.648208
 21
7.508512
 31
0.0
 11
134.302507
 21
7.243442
 31
0.0
 11
133.903371
 21
7.078114
 31
0.0
 11
133.471490
 21
7.021100
 31
0.0
  0
ENDSEC
  0
SECTION
  2
OBJECTS
  0
DICTIONARY
  5
C
330
0
100
AcDbDictionary
  3
ACAD_GROUP
350
D
  3
ACAD_MLINESTYLE
350
17
  0
DICTIONARY
  5
D
330
C
100
AcDbDictionary
  0
DICTIONARY
  5
1A
330
C
100
AcDbDictionary
  0
DICTIONARY
  5
17
330
C
100
AcDbDictionary
  3
STANDARD
350
18
  0
DICTIONARY
  5
19
330
C
100
AcDbDictionary
  0
ENDSEC
  0
EOF
