  0
SECTION
  2
HEADER
  9
$ACADVER
  1
AC1014
  9
$HANDSEED
  5
FFFF
  9
$INSUNITS
 70
     4
  9
$MEASUREMENT
 70
     1
  0
ENDSEC
  0
SECTION
  2
TABLES
  0
TABLE
  2
VPORT
  5
8
330
0
100
AcDbSymbolTable
 70
     4
  0
VPORT
  5
2E
330
8
100
AcDbSymbolTableRecord
100
AcDbViewportTableRecord
  2
*ACTIVE
 70
     0
 10
0.0
 20
0.0
 11
1.0
 21
1.0
 12
210.0
 22
148.5
 13
0.0
 23
0.0
 14
10.0
 24
10.0
 15
10.0
 25
10.0
 16
0.0
 26
0.0
 36
1.0
 17
0.0
 27
0.0
 37
0.0
 40
341.0
 41
1.24
 42
50.0
 43
0.0
 44
0.0
 50
0.0
 51
0.0
 71
     0
 72
   100
 73
     1
 74
     3
 75
     0
 76
     0
 77
     0
 78
     0
  0
ENDTAB
  0
TABLE
  2
LTYPE
  5
5
330
0
100
AcDbSymbolTable
 70
     1
  0
LTYPE
  5
14
330
5
100
AcDbSymbolTableRecord
100
AcDbLinetypeTableRecord
  2
BYBLOCK
 70
     0
  3

 72
    65
 73
     0
 40
0.0
  0
LTYPE
  5
15
330
5
100
AcDbSymbolTableRecord
100
AcDbLinetypeTableRecord
  2
BYLAYER
 70
     0
  3

 72
    65
 73
     0
 40
0.0
  0
LTYPE
  5
16
330
5
100
AcDbSymbolTableRecord
100
AcDbLinetypeTableRecord
  2
CONTINUOUS
 70
     0
  3
Solid line
 72
    65
 73
     0
 40
0.0
  0
ENDTAB
  0
TABLE
  2
LAYER
  5
2
100
AcDbSymbolTable
 70
4
  0
LAYER
  5
50
100
AcDbSymbolTableRecord
100
AcDbLayerTableRecord
  2
0
 70
0
  6
CONTINUOUS
  0
LAYER
  5
51
100
AcDbSymbolTableRecord
100
AcDbLayerTableRecord
  2
Calque_1
 70
0
  6
CONTINUOUS
  0
LAYER
  5
52
100
AcDbSymbolTableRecord
100
AcDbLayerTableRecord
  2
reperes
 70
0
  6
CONTINUOUS
  0
LAYER
  5
53
100
AcDbSymbolTableRecord
100
AcDbLayerTableRecord
  2
Calque_2
 70
0
  6
CONTINUOUS
  0
ENDTAB
  0
TABLE
  2
STYLE
  5
3
330
0
100
AcDbSymbolTable
 70
     1
  0
STYLE
  5
11
330
3
100
AcDbSymbolTableRecord
100
AcDbTextStyleTableRecord
  2
STANDARD
 70
     0
 40
0.0
 41
1.0
 50
0.0
 71
     0
 42
2.5
  3
txt
  4

  0
ENDTAB
  0
TABLE
  2
VIEW
  5
6
330
0
100
AcDbSymbolTable
 70
     0
  0
ENDTAB
  0
TABLE
  2
UCS
  5
7
330
0
100
AcDbSymbolTable
 70
     0
  0
ENDTAB
  0
TABLE
  2
APPID
  5
9
330
0
100
AcDbSymbolTable
 70
     2
  0
APPID
  5
12
330
9
100
AcDbSymbolTableRecord
100
AcDbRegAppTableRecord
  2
ACAD
 70
     0
  0
ENDTAB
  0
TABLE
  2
DIMSTYLE
  5
A
330
0
100
AcDbSymbolTable
 70
     1
  0
DIMSTYLE
105
27
330
A
100
AcDbSymbolTableRecord
100
AcDbDimStyleTableRecord
  2
ISO-25
 70
     0
  3

  4

  5

  6

  7

 40
1.0
 41
2.5
 42
0.625
 43
3.75
 44
1.25
 45
0.0
 46
0.0
 47
0.0
 48
0.0
140
2.5
141
2.5
142
0.0
143
0.03937007874016
144
1.0
145
0.0
146
1.0
147
0.625
 71
     0
 72
     0
 73
     0
 74
     0
 75
     0
 76
     0
 77
     1
 78
     8
170
     0
171
     3
172
     1
173
     0
174
     0
175
     0
176
     0
177
     0
178
     0
270
     2
271
     2
272
     2
273
     2
274
     3
340
11
275
     0
280
     0
281
     0
282
     0
283
     0
284
     8
285
     0
286
     0
287
     3
288
     0
  0
ENDTAB
  0
TABLE
  2
BLOCK_RECORD
  5
1
330
0
100
AcDbSymbolTable
 70
     1
  0
BLOCK_RECORD
  5
1F
330
1
100
AcDbSymbolTableRecord
100
AcDbBlockTableRecord
  2
*MODEL_SPACE
  0
BLOCK_RECORD
  5
1B
330
1
100
AcDbSymbolTableRecord
100
AcDbBlockTableRecord
  2
*PAPER_SPACE
  0
ENDTAB
  0
ENDSEC
  0
SECTION
  2
BLOCKS
  0
BLOCK
  5
20
330
1F
100
AcDbEntity
  8
0
100
AcDbBlockBegin
  2
*MODEL_SPACE
 70
     0
 10
0.0
 20
0.0
 30
0.0
  3
*MODEL_SPACE
  1

  0
ENDBLK
  5
21
330
1F
100
AcDbEntity
  8
0
100
AcDbBlockEnd
  0
BLOCK
  5
1C
330
1B
100
AcDbEntity
 67
     1
  8
0
100
AcDbBlockBegin
  2
*PAPER_SPACE
  1

  0
ENDBLK
  5
1D
330
1B
100
AcDbEntity
 67
     1
  8
0
100
AcDbBlockEnd
  0
ENDSEC
  0
SECTION
  2
ENTITIES
  0
LINE
  5
100
100
AcDbEntity
  8
Calque_1
 62
7
100
AcDbLine
 10
130.529170
 20
254.653260
 30
0.0
 11
130.529170
 21
254.653260
 31
0.0
  0
LINE
  5
101
100
AcDbEntity
  8
Calque_1
 62
7
100
AcDbLine
 10
250.950420
 20
131.670240
 30
0.0
 11
250.950420
 21
127.570224
 31
0.0
  0
LINE
  5
102
100
AcDbEntity
  8
Calque_1
 62
7
100
AcDbLine
 10
250.950420
 20
127.570224
 30
0.0
 11
128.321250
 21
127.570224
 31
0.0
  0
LINE
  5
103
100
AcDbEntity
  8
Calque_1
 62
7
100
AcDbLine
 10
128.321250
 20
127.570224
 30
0.0
 11
128.321250
 21
131.670240
 31
0.0
  0
LINE
  5
104
100
AcDbEntity
  8
Calque_1
 62
7
100
AcDbLine
 10
128.321250
 20
131.670240
 30
0.0
 11
250.950420
 21
131.670240
 31
0.0
  0
LINE
  5
105
100
AcDbEntity
  8
Calque_1
 62
7
100
AcDbLine
 10
128.479170
 20
249.994890
 30
0.0
 11
132.579186
 21
249.994890
 31
0.0
  0
LINE
  5
106
100
AcDbEntity
  8
Calque_1
 62
7
100
AcDbLine
 10
132.579186
 20
249.994890
 30
0.0
 11
132.579186
 21
127.365720
 31
0.0
  0
LINE
  5
107
100
AcDbEntity
  8
Calque_1
 62
7
100
AcDbLine
 10
132.579186
 20
127.365720
 30
0.0
 11
128.479170
 21
127.365720
 31
0.0
  0
LINE
  5
108
100
AcDbEntity
  8
Calque_1
 62
7
100
AcDbLine
 10
128.479170
 20
127.365720
 30
0.0
 11
128.479170
 21
249.994890
 31
0.0
  0
LINE
  5
109
100
AcDbEntity
  8
Calque_1
 62
7
100
AcDbLine
 10
10.154519
 20
127.523640
 30
0.0
 11
10.154519
 21
131.623656
 31
0.0
  0
LINE
  5
10a
100
AcDbEntity
  8
Calque_1
 62
7
100
AcDbLine
 10
10.154519
 20
131.623656
 30
0.0
 11
132.783689
 21
131.623656
 31
0.0
  0
LINE
  5
10b
100
AcDbEntity
  8
Calque_1
 62
7
100
AcDbLine
 10
132.783689
 20
131.623656
 30
0.0
 11
132.783689
 21
127.523640
 31
0.0
  0
LINE
  5
10c
100
AcDbEntity
  8
Calque_1
 62
7
100
AcDbLine
 10
132.783689
 20
127.523640
 30
0.0
 11
10.154519
 21
127.523640
 31
0.0
  0
LINE
  5
10d
100
AcDbEntity
  8
Calque_1
 62
7
100
AcDbLine
 10
132.625780
 20
9.198990
 30
0.0
 11
128.525764
 21
9.198990
 31
0.0
  0
LINE
  5
10e
100
AcDbEntity
  8
Calque_1
 62
7
100
AcDbLine
 10
128.525764
 20
9.198990
 30
0.0
 11
128.525764
 21
131.828160
 31
0.0
  0
LINE
  5
10f
100
AcDbEntity
  8
Calque_1
 62
7
100
AcDbLine
 10
128.525764
 20
131.828160
 30
0.0
 11
132.625780
 21
131.828160
 31
0.0
  0
LINE
  5
110
100
AcDbEntity
  8
Calque_1
 62
7
100
AcDbLine
 10
132.625780
 20
131.828160
 30
0.0
 11
132.625780
 21
9.198990
 31
0.0
  0
LINE
  5
111
100
AcDbEntity
  8
Calque_1
 62
7
100
AcDbLine
 10
217.152735
 20
45.928770
 30
0.0
 11
214.253586
 21
43.029621
 31
0.0
  0
LINE
  5
112
100
AcDbEntity
  8
Calque_1
 62
7
100
AcDbLine
 10
214.253586
 20
43.029621
 30
0.0
 11
127.541669
 21
129.741539
 31
0.0
  0
LINE
  5
113
100
AcDbEntity
  8
Calque_1
 62
7
100
AcDbLine
 10
127.541669
 20
129.741539
 30
0.0
 11
130.440818
 21
132.640688
 31
0.0
  0
LINE
  5
114
100
AcDbEntity
  8
Calque_1
 62
7
100
AcDbLine
 10
130.440818
 20
132.640688
 30
0.0
 11
217.152735
 21
45.928770
 31
0.0
  0
LINE
  5
115
100
AcDbEntity
  8
Calque_1
 62
7
100
AcDbLine
 10
214.220637
 20
216.197189
 30
0.0
 11
217.119786
 21
213.298040
 31
0.0
  0
LINE
  5
116
100
AcDbEntity
  8
Calque_1
 62
7
100
AcDbLine
 10
217.119786
 20
213.298040
 30
0.0
 11
130.407868
 21
126.586122
 31
0.0
  0
LINE
  5
117
100
AcDbEntity
  8
Calque_1
 62
7
100
AcDbLine
 10
130.407868
 20
126.586122
 30
0.0
 11
127.508719
 21
129.485271
 31
0.0
  0
LINE
  5
118
100
AcDbEntity
  8
Calque_1
 62
7
100
AcDbLine
 10
127.508719
 20
129.485271
 30
0.0
 11
214.220637
 21
216.197189
 31
0.0
  0
LINE
  5
119
100
AcDbEntity
  8
Calque_1
 62
7
100
AcDbLine
 10
43.952216
 20
213.265102
 30
0.0
 11
46.851365
 21
216.164251
 31
0.0
  0
LINE
  5
11a
100
AcDbEntity
  8
Calque_1
 62
7
100
AcDbLine
 10
46.851365
 20
216.164251
 30
0.0
 11
133.563282
 21
129.452333
 31
0.0
  0
LINE
  5
11b
100
AcDbEntity
  8
Calque_1
 62
7
100
AcDbLine
 10
133.563282
 20
129.452333
 30
0.0
 11
130.664133
 21
126.553184
 31
0.0
  0
LINE
  5
11c
100
AcDbEntity
  8
Calque_1
 62
7
100
AcDbLine
 10
130.664133
 20
126.553184
 30
0.0
 11
43.952216
 21
213.265102
 31
0.0
  0
LINE
  5
11d
100
AcDbEntity
  8
Calque_1
 62
7
100
AcDbLine
 10
46.884319
 20
42.996679
 30
0.0
 11
43.985170
 21
45.895828
 31
0.0
  0
LINE
  5
11e
100
AcDbEntity
  8
Calque_1
 62
7
100
AcDbLine
 10
43.985170
 20
45.895828
 30
0.0
 11
130.697088
 21
132.607745
 31
0.0
  0
LINE
  5
11f
100
AcDbEntity
  8
Calque_1
 62
7
100
AcDbLine
 10
130.697088
 20
132.607745
 30
0.0
 11
133.596237
 21
129.708596
 31
0.0
  0
LINE
  5
120
100
AcDbEntity
  8
Calque_1
 62
7
100
AcDbLine
 10
133.596237
 20
129.708596
 30
0.0
 11
46.884319
 21
42.996679
 31
0.0
  0
SPLINE
  5
121
100
AcDbEntity
  8
Calque_1
 62
7
100
AcDbSpline
 70
0
 71
3
 72
25
 73
21
 74
19
 40
0.000000
 40
0.000000
 40
0.000000
 40
0.000000
 40
49.157913
 40
97.440456
 40
146.598369
 40
195.756281
 40
244.038824
 40
293.196737
 40
342.354650
 40
390.637193
 40
439.795106
 40
488.953018
 40
537.235561
 40
586.393474
 40
619.177514
 40
651.690253
 40
684.474293
 40
717.258332
 40
749.771072
 40
782.555112
 40
782.555112
 40
782.555112
 40
782.555112
 10
130.529170
 20
254.653260
 30
0.0
 10
114.037398
 20
252.750258
 30
0.0
 10
81.347527
 20
248.978142
 30
0.0
 10
39.689178
 20
220.041713
 30
0.0
 10
11.775934
 20
178.668412
 30
0.0
 10
2.047177
 20
129.384226
 30
0.0
 10
11.821609
 20
80.266028
 30
0.0
 10
39.639371
 20
38.524739
 30
0.0
 10
81.374979
 20
10.708405
 30
0.0
 10
130.514232
 20
0.933955
 30
0.0
 10
179.718733
 20
10.661359
 30
0.0
 10
221.388812
 20
38.580022
 30
0.0
 10
249.230319
 20
80.218275
 30
0.0
 10
257.951355
 20
123.974282
 30
0.0
 10
252.881684
 20
162.197747
 30
0.0
 10
240.232826
 20
192.744839
 30
0.0
 10
220.108297
 20
219.022406
 30
0.0
 10
193.863775
 20
239.015140
 30
0.0
 10
163.316434
 20
252.155542
 30
0.0
 10
141.488489
 20
253.818384
 30
0.0
 10
130.529170
 20
254.653260
 30
0.0
 11
130.529170
 21
254.653260
 31
0.0
 11
82.326554
 21
245.009183
 31
0.0
 11
42.181087
 21
218.184840
 31
0.0
 11
14.824779
 21
177.342058
 31
0.0
 11
5.288402
 21
129.118019
 31
0.0
 11
14.707859
 21
81.763212
 31
0.0
 11
41.972863
 21
40.859423
 31
0.0
 11
82.876652
 21
13.594419
 31
0.0
 11
130.231459
 21
4.174962
 31
0.0
 11
178.455498
 21
13.711339
 31
0.0
 11
219.298280
 21
41.067647
 31
0.0
 11
246.122623
 21
81.213114
 31
0.0
 11
255.766700
 21
129.415730
 31
0.0
 11
251.475996
 21
161.917778
 31
0.0
 11
239.033909
 21
191.955633
 31
0.0
 11
219.085477
 21
217.972037
 31
0.0
 11
193.069073
 21
237.920469
 31
0.0
 11
163.031218
 21
250.362556
 31
0.0
 11
130.529170
 21
254.653260
 31
0.0
  0
LINE
  5
122
100
AcDbEntity
  8
Calque_2
 62
7
100
AcDbLine
 10
129.282866
 20
128.294392
 30
0.0
 11
129.282866
 21
128.294392
 31
0.0
  0
LINE
  5
123
100
AcDbEntity
  8
Calque_2
 62
7
100
AcDbLine
 10
100.866087
 20
99.877613
 30
0.0
 11
100.866087
 21
99.877613
 31
0.0
  0
SPLINE
  5
124
100
AcDbEntity
  8
Calque_2
 62
7
100
AcDbSpline
 70
0
 71
3
 72
25
 73
21
 74
19
 40
0.000000
 40
0.000000
 40
0.000000
 40
0.000000
 40
0.785035
 40
1.556090
 40
2.341125
 40
3.126160
 40
3.897216
 40
4.682250
 40
5.467285
 40
6.238341
 40
7.023376
 40
7.808410
 40
8.579466
 40
9.364501
 40
9.888051
 40
10.407268
 40
10.930818
 40
11.454367
 40
11.973584
 40
12.497134
 40
12.497134
 40
12.497134
 40
12.497134
 10
129.282866
 20
128.294392
 30
0.0
 10
129.490585
 20
128.129652
 30
0.0
 10
129.902323
 20
127.803106
 30
0.0
 10
130.699497
 20
127.659446
 30
0.0
 10
131.481898
 20
127.811441
 30
0.0
 10
132.148287
 20
128.258111
 30
0.0
 10
132.592566
 20
128.923141
 30
0.0
 10
132.749794
 20
129.708619
 30
0.0
 10
132.592614
 20
130.494017
 30
0.0
 10
132.148097
 20
131.159285
 30
0.0
 10
131.482623
 20
131.605071
 30
0.0
 10
130.696810
 20
131.760355
 30
0.0
 10
129.912227
 20
131.604559
 30
0.0
 10
129.319643
 20
131.208935
 30
0.0
 10
128.945262
 20
130.720058
 30
0.0
 10
128.743151
 20
130.232279
 30
0.0
 10
128.673669
 20
129.708295
 30
0.0
 10
128.744266
 20
129.186172
 30
0.0
 10
128.940829
 20
128.692839
 30
0.0
 10
129.168539
 20
128.427575
 30
0.0
 10
129.282866
 20
128.294392
 30
0.0
 11
129.282866
 21
128.294392
 31
0.0
 11
129.936086
 21
127.858979
 31
0.0
 11
130.692326
 21
127.708554
 31
0.0
 11
131.462447
 21
127.860847
 31
0.0
 11
132.114692
 21
128.297717
 31
0.0
 11
132.543067
 21
128.938827
 31
0.0
 11
132.697080
 21
129.708606
 31
0.0
 11
132.543067
 21
130.478385
 31
0.0
 11
132.114692
 21
131.119494
 31
0.0
 11
131.462447
 21
131.556365
 31
0.0
 11
130.692326
 21
131.708657
 31
0.0
 11
129.936086
 21
131.558232
 31
0.0
 11
129.282866
 21
131.122819
 31
0.0
 11
128.964297
 21
130.707346
 31
0.0
 11
128.765601
 21
130.227652
 31
0.0
 11
128.697080
 21
129.708606
 31
0.0
 11
128.765601
 21
129.189559
 31
0.0
 11
128.964297
 21
128.709865
 31
0.0
 11
129.282866
 21
128.294392
 31
0.0
  0
LINE
  5
125
100
AcDbEntity
  8
Calque_2
 62
7
100
AcDbLine
 10
101.088138
 20
100.806771
 30
0.0
 11
103.472463
 21
103.191095
 31
0.0
  0
SPLINE
  5
126
100
AcDbEntity
  8
Calque_2
 62
7
100
AcDbSpline
 70
0
 71
3
 72
13
 73
9
 74
7
 40
0.000000
 40
0.000000
 40
0.000000
 40
0.000000
 40
0.132725
 40
0.277369
 40
0.443504
 40
0.630424
 40
0.831886
 40
1.043838
 40
1.043838
 40
1.043838
 40
1.043838
 10
100.866087
 20
99.877613
 30
0.0
 10
100.838804
 20
99.913229
 30
0.0
 10
100.781788
 20
99.987660
 30
0.0
 10
100.759154
 20
100.138983
 30
0.0
 10
100.779498
 20
100.304525
 30
0.0
 10
100.844930
 20
100.478974
 30
0.0
 10
100.947282
 20
100.652449
 30
0.0
 10
101.040399
 20
100.754467
 30
0.0
 10
101.088138
 20
100.806771
 30
0.0
 11
100.866087
 21
99.877613
 31
0.0
 11
100.794052
 21
99.989088
 31
0.0
 11
100.766438
 21
100.131072
 31
0.0
 11
100.784678
 21
100.296203
 31
0.0
 11
100.847936
 21
100.472093
 31
0.0
 11
100.950868
 21
100.645275
 31
0.0
 11
101.088138
 21
100.806771
 31
0.0
  0
LINE
  5
127
100
AcDbEntity
  8
Calque_2
 62
7
100
AcDbLine
 10
104.401621
 20
103.413146
 30
0.0
 11
104.401621
 21
103.413146
 31
0.0
  0
LINE
  5
128
100
AcDbEntity
  8
Calque_2
 62
7
100
AcDbLine
 10
104.179569
 20
102.483988
 30
0.0
 11
101.795245
 21
100.099664
 31
0.0
  0
SPLINE
  5
129
100
AcDbEntity
  8
Calque_2
 62
7
100
AcDbSpline
 70
0
 71
3
 72
19
 73
15
 74
13
 40
0.000000
 40
0.000000
 40
0.000000
 40
0.000000
 40
0.211953
 40
0.413415
 40
0.600334
 40
0.766469
 40
0.911114
 40
1.043838
 40
1.176563
 40
1.321207
 40
1.487343
 40
1.674262
 40
1.875724
 40
2.087677
 40
2.087677
 40
2.087677
 40
2.087677
 10
103.472463
 20
103.191095
 30
0.0
 10
103.524760
 20
103.238828
 30
0.0
 10
103.626767
 20
103.331933
 30
0.0
 10
103.800325
 20
103.434370
 30
0.0
 10
103.974490
 20
103.499517
 30
0.0
 10
104.140929
 20
103.520757
 30
0.0
 10
104.289470
 20
103.495342
 30
0.0
 10
104.408788
 20
103.420314
 30
0.0
 10
104.483816
 20
103.300995
 30
0.0
 10
104.509232
 20
103.152455
 30
0.0
 10
104.487991
 20
102.986015
 30
0.0
 10
104.422844
 20
102.811851
 30
0.0
 10
104.320407
 20
102.638292
 30
0.0
 10
104.227303
 20
102.536286
 30
0.0
 10
104.179569
 20
102.483988
 30
0.0
 11
103.472463
 21
103.191095
 31
0.0
 11
103.633958
 21
103.328365
 31
0.0
 11
103.807140
 21
103.431297
 31
0.0
 11
103.983030
 21
103.494556
 31
0.0
 11
104.148161
 21
103.512795
 31
0.0
 11
104.290145
 21
103.485181
 31
0.0
 11
104.401621
 21
103.413146
 31
0.0
 11
104.473656
 21
103.301671
 31
0.0
 11
104.501269
 21
103.159687
 31
0.0
 11
104.483030
 21
102.994556
 31
0.0
 11
104.419772
 21
102.818666
 31
0.0
 11
104.316839
 21
102.645484
 31
0.0
 11
104.179569
 21
102.483988
 31
0.0
  0
LINE
  5
12a
100
AcDbEntity
  8
Calque_2
 62
7
100
AcDbLine
 10
100.866087
 20
99.877613
 30
0.0
 11
100.866087
 21
99.877613
 31
0.0
  0
LINE
  5
12b
100
AcDbEntity
  8
Calque_2
 62
7
100
AcDbLine
 10
82.260911
 20
81.009447
 30
0.0
 11
81.997907
 21
81.272451
 31
0.0
  0
SPLINE
  5
12c
100
AcDbEntity
  8
Calque_2
 62
7
100
AcDbSpline
 70
0
 71
3
 72
13
 73
9
 74
7
 40
0.000000
 40
0.000000
 40
0.000000
 40
0.000000
 40
0.211953
 40
0.413415
 40
0.600334
 40
0.766469
 40
0.911114
 40
1.043838
 40
1.043838
 40
1.043838
 40
1.043838
 10
101.795245
 20
100.099664
 30
0.0
 10
101.742941
 20
100.051924
 30
0.0
 10
101.640923
 20
99.958808
 30
0.0
 10
101.467449
 20
99.856455
 30
0.0
 10
101.292999
 20
99.791024
 30
0.0
 10
101.127457
 20
99.770680
 30
0.0
 10
100.976134
 20
99.793313
 30
0.0
 10
100.901703
 20
99.850330
 30
0.0
 10
100.866087
 20
99.877613
 30
0.0
 11
101.795245
 21
100.099664
 31
0.0
 11
101.633749
 21
99.962394
 31
0.0
 11
101.460567
 21
99.859462
 31
0.0
 11
101.284678
 21
99.796203
 31
0.0
 11
101.119547
 21
99.777964
 31
0.0
 11
100.977563
 21
99.805578
 31
0.0
 11
100.866087
 21
99.877613
 31
0.0
  0
LINE
  5
12d
100
AcDbEntity
  8
Calque_2
 62
7
100
AcDbLine
 10
81.997907
 20
82.423660
 30
0.0
 11
84.382231
 21
84.807985
 31
0.0
  0
SPLINE
  5
12e
100
AcDbEntity
  8
Calque_2
 62
7
100
AcDbSpline
 70
0
 71
3
 72
13
 73
9
 74
7
 40
0.000000
 40
0.000000
 40
0.000000
 40
0.000000
 40
0.213092
 40
0.424421
 40
0.637513
 40
0.850605
 40
1.061934
 40
1.275026
 40
1.275026
 40
1.275026
 40
1.275026
 10
81.997907
 20
81.272451
 30
0.0
 10
81.951371
 20
81.326661
 30
0.0
 10
81.858684
 20
81.434633
 30
0.0
 10
81.778724
 20
81.635384
 30
0.0
 10
81.749824
 20
81.848056
 30
0.0
 10
81.778724
 20
82.060727
 30
0.0
 10
81.858684
 20
82.261478
 30
0.0
 10
81.951371
 20
82.369450
 30
0.0
 10
81.997907
 20
82.423660
 30
0.0
 11
81.997907
 21
81.272451
 31
0.0
 11
81.868245
 21
81.441554
 31
0.0
 11
81.787373
 21
81.636796
 31
0.0
 11
81.759484
 21
81.848056
 31
0.0
 11
81.787373
 21
82.059315
 31
0.0
 11
81.868245
 21
82.254557
 31
0.0
 11
81.997907
 21
82.423660
 31
0.0
  0
LINE
  5
12f
100
AcDbEntity
  8
Calque_2
 62
7
100
AcDbLine
 10
85.533441
 20
84.807985
 30
0.0
 11
85.796445
 21
84.544981
 31
0.0
  0
SPLINE
  5
130
100
AcDbEntity
  8
Calque_2
 62
7
100
AcDbSpline
 70
0
 71
3
 72
13
 73
9
 74
7
 40
0.000000
 40
0.000000
 40
0.000000
 40
0.000000
 40
0.213092
 40
0.424421
 40
0.637513
 40
0.850605
 40
1.061934
 40
1.275026
 40
1.275026
 40
1.275026
 40
1.275026
 10
84.382231
 20
84.807985
 30
0.0
 10
84.436441
 20
84.854521
 30
0.0
 10
84.544413
 20
84.947207
 30
0.0
 10
84.745165
 20
85.027168
 30
0.0
 10
84.957836
 20
85.056068
 30
0.0
 10
85.170507
 20
85.027168
 30
0.0
 10
85.371259
 20
84.947207
 30
0.0
 10
85.479231
 20
84.854521
 30
0.0
 10
85.533441
 20
84.807985
 30
0.0
 11
84.382231
 21
84.807985
 31
0.0
 11
84.551335
 21
84.937647
 31
0.0
 11
84.746577
 21
85.018519
 31
0.0
 11
84.957836
 21
85.046408
 31
0.0
 11
85.169095
 21
85.018519
 31
0.0
 11
85.364338
 21
84.937647
 31
0.0
 11
85.533441
 21
84.807985
 31
0.0
  0
LINE
  5
131
100
AcDbEntity
  8
Calque_2
 62
7
100
AcDbLine
 10
85.796445
 20
83.393771
 30
0.0
 11
83.412121
 21
81.009447
 31
0.0
  0
SPLINE
  5
132
100
AcDbEntity
  8
Calque_2
 62
7
100
AcDbSpline
 70
0
 71
3
 72
13
 73
9
 74
7
 40
0.000000
 40
0.000000
 40
0.000000
 40
0.000000
 40
0.213092
 40
0.424421
 40
0.637513
 40
0.850605
 40
1.061934
 40
1.275026
 40
1.275026
 40
1.275026
 40
1.275026
 10
85.796445
 20
84.544981
 30
0.0
 10
85.842981
 20
84.490771
 30
0.0
 10
85.935667
 20
84.382799
 30
0.0
 10
86.015628
 20
84.182047
 30
0.0
 10
86.044528
 20
83.969376
 30
0.0
 10
86.015628
 20
83.756705
 30
0.0
 10
85.935667
 20
83.555953
 30
0.0
 10
85.842981
 20
83.447981
 30
0.0
 10
85.796445
 20
83.393771
 30
0.0
 11
85.796445
 21
84.544981
 31
0.0
 11
85.926107
 21
84.375877
 31
0.0
 11
86.006979
 21
84.180635
 31
0.0
 11
86.034868
 21
83.969376
 31
0.0
 11
86.006979
 21
83.758117
 31
0.0
 11
85.926107
 21
83.562874
 31
0.0
 11
85.796445
 21
83.393771
 31
0.0
  0
LINE
  5
133
100
AcDbEntity
  8
Calque_2
 62
7
100
AcDbLine
 10
82.260911
 20
81.009447
 30
0.0
 11
82.260911
 21
81.009447
 31
0.0
  0
LINE
  5
134
100
AcDbEntity
  8
Calque_2
 62
7
100
AcDbLine
 10
64.513033
 20
62.554463
 30
0.0
 11
63.542923
 21
63.524573
 31
0.0
  0
SPLINE
  5
135
100
AcDbEntity
  8
Calque_2
 62
7
100
AcDbSpline
 70
0
 71
3
 72
13
 73
9
 74
7
 40
0.000000
 40
0.000000
 40
0.000000
 40
0.000000
 40
0.213092
 40
0.424421
 40
0.637513
 40
0.850605
 40
1.061934
 40
1.275026
 40
1.275026
 40
1.275026
 40
1.275026
 10
83.412121
 20
81.009447
 30
0.0
 10
83.357910
 20
80.962911
 30
0.0
 10
83.249939
 20
80.870224
 30
0.0
 10
83.049187
 20
80.790263
 30
0.0
 10
82.836516
 20
80.761364
 30
0.0
 10
82.623844
 20
80.790263
 30
0.0
 10
82.423093
 20
80.870224
 30
0.0
 10
82.315121
 20
80.962911
 30
0.0
 10
82.260911
 20
81.009447
 30
0.0
 11
83.412121
 21
81.009447
 31
0.0
 11
83.243017
 21
80.879785
 31
0.0
 11
83.047775
 21
80.798913
 31
0.0
 11
82.836516
 21
80.771023
 31
0.0
 11
82.625257
 21
80.798913
 31
0.0
 11
82.430014
 21
80.879785
 31
0.0
 11
82.260911
 21
81.009447
 31
0.0
  0
LINE
  5
136
100
AcDbEntity
  8
Calque_2
 62
7
100
AcDbLine
 10
63.542923
 20
64.675783
 30
0.0
 11
65.927247
 21
67.060107
 31
0.0
  0
SPLINE
  5
137
100
AcDbEntity
  8
Calque_2
 62
7
100
AcDbSpline
 70
0
 71
3
 72
13
 73
9
 74
7
 40
0.000000
 40
0.000000
 40
0.000000
 40
0.000000
 40
0.213092
 40
0.424421
 40
0.637513
 40
0.850605
 40
1.061934
 40
1.275026
 40
1.275026
 40
1.275026
 40
1.275026
 10
63.542923
 20
63.524573
 30
0.0
 10
63.496387
 20
63.578783
 30
0.0
 10
63.403700
 20
63.686755
 30
0.0
 10
63.323739
 20
63.887507
 30
0.0
 10
63.294839
 20
64.100178
 30
0.0
 10
63.323739
 20
64.312849
 30
0.0
 10
63.403700
 20
64.513601
 30
0.0
 10
63.496387
 20
64.621573
 30
0.0
 10
63.542923
 20
64.675783
 30
0.0
 11
63.542923
 21
63.524573
 31
0.0
 11
63.413260
 21
63.693677
 31
0.0
 11
63.332388
 21
63.888919
 31
0.0
 11
63.304499
 21
64.100178
 31
0.0
 11
63.332388
 21
64.311437
 31
0.0
 11
63.413260
 21
64.506680
 31
0.0
 11
63.542923
 21
64.675783
 31
0.0
  0
LINE
  5
138
100
AcDbEntity
  8
Calque_2
 62
7
100
AcDbLine
 10
67.078457
 20
67.060107
 30
0.0
 11
68.048567
 21
66.089996
 31
0.0
  0
SPLINE
  5
139
100
AcDbEntity
  8
Calque_2
 62
7
100
AcDbSpline
 70
0
 71
3
 72
13
 73
9
 74
7
 40
0.000000
 40
0.000000
 40
0.000000
 40
0.000000
 40
0.213092
 40
0.424421
 40
0.637513
 40
0.850605
 40
1.061934
 40
1.275026
 40
1.275026
 40
1.275026
 40
1.275026
 10
65.927247
 20
67.060107
 30
0.0
 10
65.981457
 20
67.106643
 30
0.0
 10
66.089429
 20
67.199330
 30
0.0
 10
66.290180
 20
67.279291
 30
0.0
 10
66.502852
 20
67.308190
 30
0.0
 10
66.715523
 20
67.279291
 30
0.0
 10
66.916275
 20
67.199330
 30
0.0
 10
67.024246
 20
67.106643
 30
0.0
 10
67.078457
 20
67.060107
 30
0.0
 11
65.927247
 21
67.060107
 31
0.0
 11
66.096350
 21
67.189769
 31
0.0
 11
66.291593
 21
67.270641
 31
0.0
 11
66.502852
 21
67.298531
 31
0.0
 11
66.714111
 21
67.270641
 31
0.0
 11
66.909353
 21
67.189769
 31
0.0
 11
67.078457
 21
67.060107
 31
0.0
  0
LINE
  5
13a
100
AcDbEntity
  8
Calque_2
 62
7
100
AcDbLine
 10
68.048567
 20
64.938787
 30
0.0
 11
65.664243
 21
62.554463
 31
0.0
  0
SPLINE
  5
13b
100
AcDbEntity
  8
Calque_2
 62
7
100
AcDbSpline
 70
0
 71
3
 72
13
 73
9
 74
7
 40
0.000000
 40
0.000000
 40
0.000000
 40
0.000000
 40
0.213092
 40
0.424421
 40
0.637513
 40
0.850605
 40
1.061934
 40
1.275026
 40
1.275026
 40
1.275026
 40
1.275026
 10
68.048567
 20
66.089996
 30
0.0
 10
68.095103
 20
66.035786
 30
0.0
 10
68.187790
 20
65.927815
 30
0.0
 10
68.267751
 20
65.727063
 30
0.0
 10
68.296651
 20
65.514392
 30
0.0
 10
68.267751
 20
65.301720
 30
0.0
 10
68.187790
 20
65.100969
 30
0.0
 10
68.095103
 20
64.992997
 30
0.0
 10
68.048567
 20
64.938787
 30
0.0
 11
68.048567
 21
66.089996
 31
0.0
 11
68.178230
 21
65.920893
 31
0.0
 11
68.259102
 21
65.725651
 31
0.0
 11
68.286991
 21
65.514392
 31
0.0
 11
68.259102
 21
65.303132
 31
0.0
 11
68.178230
 21
65.107890
 31
0.0
 11
68.048567
 21
64.938787
 31
0.0
  0
LINE
  5
13c
100
AcDbEntity
  8
Calque_2
 62
7
100
AcDbLine
 10
64.513033
 20
62.554463
 30
0.0
 11
64.513033
 21
62.554463
 31
0.0
  0
LINE
  5
13d
100
AcDbEntity
  8
Calque_2
 62
7
100
AcDbLine
 10
46.308693
 20
43.643015
 30
0.0
 11
44.631476
 21
45.320233
 31
0.0
  0
SPLINE
  5
13e
100
AcDbEntity
  8
Calque_2
 62
7
100
AcDbSpline
 70
0
 71
3
 72
13
 73
9
 74
7
 40
0.000000
 40
0.000000
 40
0.000000
 40
0.000000
 40
0.213092
 40
0.424421
 40
0.637513
 40
0.850605
 40
1.061934
 40
1.275026
 40
1.275026
 40
1.275026
 40
1.275026
 10
65.664243
 20
62.554463
 30
0.0
 10
65.610033
 20
62.507927
 30
0.0
 10
65.502061
 20
62.415240
 30
0.0
 10
65.301310
 20
62.335279
 30
0.0
 10
65.088638
 20
62.306379
 30
0.0
 10
64.875967
 20
62.335279
 30
0.0
 10
64.675215
 20
62.415240
 30
0.0
 10
64.567244
 20
62.507927
 30
0.0
 10
64.513033
 20
62.554463
 30
0.0
 11
65.664243
 21
62.554463
 31
0.0
 11
65.495140
 21
62.424800
 31
0.0
 11
65.299897
 21
62.343928
 31
0.0
 11
65.088638
 21
62.316039
 31
0.0
 11
64.877379
 21
62.343928
 31
0.0
 11
64.682137
 21
62.424800
 31
0.0
 11
64.513033
 21
62.554463
 31
0.0
  0
LINE
  5
13f
100
AcDbEntity
  8
Calque_2
 62
7
100
AcDbLine
 10
44.631476
 20
46.471443
 30
0.0
 11
47.015800
 21
48.855767
 31
0.0
  0
SPLINE
  5
140
100
AcDbEntity
  8
Calque_2
 62
7
100
AcDbSpline
 70
0
 71
3
 72
13
 73
9
 74
7
 40
0.000000
 40
0.000000
 40
0.000000
 40
0.000000
 40
0.213092
 40
0.424421
 40
0.637513
 40
0.850605
 40
1.061934
 40
1.275026
 40
1.275026
 40
1.275026
 40
1.275026
 10
44.631476
 20
45.320233
 30
0.0
 10
44.584940
 20
45.374443
 30
0.0
 10
44.492253
 20
45.482415
 30
0.0
 10
44.412292
 20
45.683166
 30
0.0
 10
44.383392
 20
45.895838
 30
0.0
 10
44.412292
 20
46.108509
 30
0.0
 10
44.492253
 20
46.309261
 30
0.0
 10
44.584940
 20
46.417232
 30
0.0
 10
44.631476
 20
46.471443
 30
0.0
 11
44.631476
 21
45.320233
 31
0.0
 11
44.501813
 21
45.489336
 31
0.0
 11
44.420941
 21
45.684579
 31
0.0
 11
44.393052
 21
45.895838
 31
0.0
 11
44.420941
 21
46.107097
 31
0.0
 11
44.501813
 21
46.302339
 31
0.0
 11
44.631476
 21
46.471443
 31
0.0
  0
LINE
  5
141
100
AcDbEntity
  8
Calque_2
 62
7
100
AcDbLine
 10
48.167010
 20
48.855767
 30
0.0
 11
49.844227
 21
47.178549
 31
0.0
  0
SPLINE
  5
142
100
AcDbEntity
  8
Calque_2
 62
7
100
AcDbSpline
 70
0
 71
3
 72
13
 73
9
 74
7
 40
0.000000
 40
0.000000
 40
0.000000
 40
0.000000
 40
0.213092
 40
0.424421
 40
0.637513
 40
0.850605
 40
1.061934
 40
1.275026
 40
1.275026
 40
1.275026
 40
1.275026
 10
47.015800
 20
48.855767
 30
0.0
 10
47.070010
 20
48.902303
 30
0.0
 10
47.177982
 20
48.994990
 30
0.0
 10
47.378733
 20
49.074950
 30
0.0
 10
47.591405
 20
49.103850
 30
0.0
 10
47.804076
 20
49.074950
 30
0.0
 10
48.004828
 20
48.994990
 30
0.0
 10
48.112799
 20
48.902303
 30
0.0
 10
48.167010
 20
48.855767
 30
0.0
 11
47.015800
 21
48.855767
 31
0.0
 11
47.184903
 21
48.985429
 31
0.0
 11
47.380146
 21
49.066301
 31
0.0
 11
47.591405
 21
49.094190
 31
0.0
 11
47.802664
 21
49.066301
 31
0.0
 11
47.997906
 21
48.985429
 31
0.0
 11
48.167010
 21
48.855767
 31
0.0
  0
LINE
  5
143
100
AcDbEntity
  8
Calque_2
 62
7
100
AcDbLine
 10
49.844227
 20
46.027340
 30
0.0
 11
47.459903
 21
43.643015
 31
0.0
  0
SPLINE
  5
144
100
AcDbEntity
  8
Calque_2
 62
7
100
AcDbSpline
 70
0
 71
3
 72
13
 73
9
 74
7
 40
0.000000
 40
0.000000
 40
0.000000
 40
0.000000
 40
0.213092
 40
0.424421
 40
0.637513
 40
0.850605
 40
1.061934
 40
1.275026
 40
1.275026
 40
1.275026
 40
1.275026
 10
49.844227
 20
47.178549
 30
0.0
 10
49.890763
 20
47.124339
 30
0.0
 10
49.983450
 20
47.016367
 30
0.0
 10
50.063410
 20
46.815616
 30
0.0
 10
50.092310
 20
46.602945
 30
0.0
 10
50.063410
 20
46.390273
 30
0.0
 10
49.983450
 20
46.189522
 30
0.0
 10
49.890763
 20
46.081550
 30
0.0
 10
49.844227
 20
46.027340
 30
0.0
 11
49.844227
 21
47.178549
 31
0.0
 11
49.973889
 21
47.009446
 31
0.0
 11
50.054761
 21
46.814204
 31
0.0
 11
50.082650
 21
46.602945
 31
0.0
 11
50.054761
 21
46.391685
 31
0.0
 11
49.973889
 21
46.196443
 31
0.0
 11
49.844227
 21
46.027340
 31
0.0
  0
LINE
  5
145
100
AcDbEntity
  8
Calque_2
 62
7
100
AcDbLine
 10
46.308693
 20
43.643015
 30
0.0
 11
46.308693
 21
43.643015
 31
0.0
  0
LINE
  5
146
100
AcDbEntity
  8
Calque_2
 62
7
100
AcDbLine
 10
172.558650
 20
129.620240
 30
0.0
 11
172.558650
 21
129.620240
 31
0.0
  0
SPLINE
  5
147
100
AcDbEntity
  8
Calque_2
 62
7
100
AcDbSpline
 70
0
 71
3
 72
13
 73
9
 74
7
 40
0.000000
 40
0.000000
 40
0.000000
 40
0.000000
 40
0.213092
 40
0.424421
 40
0.637513
 40
0.850605
 40
1.061934
 40
1.275026
 40
1.275026
 40
1.275026
 40
1.275026
 10
47.459903
 20
43.643015
 30
0.0
 10
47.405693
 20
43.596480
 30
0.0
 10
47.297721
 20
43.503793
 30
0.0
 10
47.096969
 20
43.423832
 30
0.0
 10
46.884298
 20
43.394932
 30
0.0
 10
46.671627
 20
43.423832
 30
0.0
 10
46.470875
 20
43.503793
 30
0.0
 10
46.362903
 20
43.596480
 30
0.0
 10
46.308693
 20
43.643015
 30
0.0
 11
47.459903
 21
43.643015
 31
0.0
 11
47.290799
 21
43.513353
 31
0.0
 11
47.095557
 21
43.432481
 31
0.0
 11
46.884298
 21
43.404592
 31
0.0
 11
46.673039
 21
43.432481
 31
0.0
 11
46.477796
 21
43.513353
 31
0.0
 11
46.308693
 21
43.643015
 31
0.0
  0
LINE
  5
148
100
AcDbEntity
  8
Calque_2
 62
7
100
AcDbLine
 10
171.744622
 20
129.120240
 30
0.0
 11
168.372678
 21
129.120240
 31
0.0
  0
SPLINE
  5
149
100
AcDbEntity
  8
Calque_2
 62
7
100
AcDbSpline
 70
0
 71
3
 72
13
 73
9
 74
7
 40
0.000000
 40
0.000000
 40
0.000000
 40
0.000000
 40
0.132725
 40
0.277369
 40
0.443504
 40
0.630424
 40
0.831886
 40
1.043838
 40
1.043838
 40
1.043838
 40
1.043838
 10
172.558650
 20
129.620240
 30
0.0
 10
172.552757
 20
129.575763
 30
0.0
 10
172.540443
 20
129.482816
 30
0.0
 10
172.449446
 20
129.359811
 30
0.0
 10
172.318005
 20
129.257140
 30
0.0
 10
172.148384
 20
129.180053
 30
0.0
 10
171.953344
 20
129.129762
 30
0.0
 10
171.815363
 20
129.123467
 30
0.0
 10
171.744622
 20
129.120240
 30
0.0
 11
172.558650
 21
129.620240
 31
0.0
 11
172.530761
 21
129.490478
 31
0.0
 11
172.449889
 21
129.370555
 31
0.0
 11
172.320227
 21
129.266687
 31
0.0
 11
172.151123
 21
129.187044
 31
0.0
 11
171.955881
 21
129.137370
 31
0.0
 11
171.744622
 21
129.120240
 31
0.0
  0
LINE
  5
14a
100
AcDbEntity
  8
Calque_2
 62
7
100
AcDbLine
 10
167.558650
 20
129.620240
 30
0.0
 11
167.558650
 21
129.620240
 31
0.0
  0
LINE
  5
14b
100
AcDbEntity
  8
Calque_2
 62
7
100
AcDbLine
 10
168.372678
 20
130.120240
 30
0.0
 11
171.744622
 21
130.120240
 31
0.0
  0
SPLINE
  5
14c
100
AcDbEntity
  8
Calque_2
 62
7
100
AcDbSpline
 70
0
 71
3
 72
19
 73
15
 74
13
 40
0.000000
 40
0.000000
 40
0.000000
 40
0.000000
 40
0.211953
 40
0.413415
 40
0.600334
 40
0.766469
 40
0.911114
 40
1.043838
 40
1.176563
 40
1.321207
 40
1.487343
 40
1.674262
 40
1.875724
 40
2.087677
 40
2.087677
 40
2.087677
 40
2.087677
 10
168.372678
 20
129.120240
 30
0.0
 10
168.301946
 20
129.123467
 30
0.0
 10
168.163981
 20
129.129762
 30
0.0
 10
167.968823
 20
129.180053
 30
0.0
 10
167.799604
 20
129.257140
 30
0.0
 10
167.666894
 20
129.359811
 30
0.0
 10
167.579832
 20
129.482816
 30
0.0
 10
167.548514
 20
129.620240
 30
0.0
 10
167.579832
 20
129.757664
 30
0.0
 10
167.666894
 20
129.880669
 30
0.0
 10
167.799604
 20
129.983340
 30
0.0
 10
167.968823
 20
130.060427
 30
0.0
 10
168.163981
 20
130.110718
 30
0.0
 10
168.301946
 20
130.117013
 30
0.0
 10
168.372678
 20
130.120240
 30
0.0
 11
168.372678
 21
129.120240
 31
0.0
 11
168.161419
 21
129.137370
 31
0.0
 11
167.966177
 21
129.187044
 31
0.0
 11
167.797073
 21
129.266687
 31
0.0
 11
167.667411
 21
129.370555
 31
0.0
 11
167.586539
 21
129.490478
 31
0.0
 11
167.558650
 21
129.620240
 31
0.0
 11
167.586539
 21
129.750002
 31
0.0
 11
167.667411
 21
129.869925
 31
0.0
 11
167.797073
 21
129.973793
 31
0.0
 11
167.966177
 21
130.053436
 31
0.0
 11
168.161419
 21
130.103110
 31
0.0
 11
168.372678
 21
130.120240
 31
0.0
  0
LINE
  5
14d
100
AcDbEntity
  8
Calque_2
 62
7
100
AcDbLine
 10
172.558650
 20
129.620240
 30
0.0
 11
172.558650
 21
129.620240
 31
0.0
  0
LINE
  5
14e
100
AcDbEntity
  8
Calque_2
 62
7
100
AcDbLine
 10
199.056300
 20
129.806192
 30
0.0
 11
199.056300
 21
129.434248
 31
0.0
  0
SPLINE
  5
14f
100
AcDbEntity
  8
Calque_2
 62
7
100
AcDbSpline
 70
0
 71
3
 72
13
 73
9
 74
7
 40
0.000000
 40
0.000000
 40
0.000000
 40
0.000000
 40
0.211953
 40
0.413415
 40
0.600334
 40
0.766469
 40
0.911114
 40
1.043838
 40
1.043838
 40
1.043838
 40
1.043838
 10
171.744622
 20
130.120240
 30
0.0
 10
171.815363
 20
130.117013
 30
0.0
 10
171.953344
 20
130.110718
 30
0.0
 10
172.148384
 20
130.060427
 30
0.0
 10
172.318005
 20
129.983340
 30
0.0
 10
172.449446
 20
129.880669
 30
0.0
 10
172.540443
 20
129.757664
 30
0.0
 10
172.552757
 20
129.664717
 30
0.0
 10
172.558650
 20
129.620240
 30
0.0
 11
171.744622
 21
130.120240
 31
0.0
 11
171.955881
 21
130.103110
 31
0.0
 11
172.151123
 21
130.053436
 31
0.0
 11
172.320227
 21
129.973793
 31
0.0
 11
172.449889
 21
129.869925
 31
0.0
 11
172.530761
 21
129.750002
 31
0.0
 11
172.558650
 21
129.620240
 31
0.0
  0
LINE
  5
150
100
AcDbEntity
  8
Calque_2
 62
7
100
AcDbLine
 10
198.242272
 20
128.620220
 30
0.0
 11
194.870328
 21
128.620220
 31
0.0
  0
SPLINE
  5
151
100
AcDbEntity
  8
Calque_2
 62
7
100
AcDbSpline
 70
0
 71
3
 72
13
 73
9
 74
7
 40
0.000000
 40
0.000000
 40
0.000000
 40
0.000000
 40
0.213092
 40
0.424421
 40
0.637513
 40
0.850605
 40
1.061934
 40
1.275026
 40
1.275026
 40
1.275026
 40
1.275026
 10
199.056300
 20
129.434248
 30
0.0
 10
199.050873
 20
129.363010
 30
0.0
 10
199.040065
 20
129.221123
 30
0.0
 10
198.954653
 20
129.022629
 30
0.0
 10
198.824707
 20
128.851813
 30
0.0
 10
198.653891
 20
128.721867
 30
0.0
 10
198.455397
 20
128.636455
 30
0.0
 10
198.313510
 20
128.625647
 30
0.0
 10
198.242272
 20
128.620220
 30
0.0
 11
199.056300
 21
129.434248
 31
0.0
 11
199.028411
 21
129.222989
 31
0.0
 11
198.947539
 21
129.027747
 31
0.0
 11
198.817877
 21
128.858643
 31
0.0
 11
198.648773
 21
128.728981
 31
0.0
 11
198.453531
 21
128.648109
 31
0.0
 11
198.242272
 21
128.620220
 31
0.0
  0
LINE
  5
152
100
AcDbEntity
  8
Calque_2
 62
7
100
AcDbLine
 10
194.056300
 20
129.434248
 30
0.0
 11
194.056300
 21
129.806192
 31
0.0
  0
SPLINE
  5
153
100
AcDbEntity
  8
Calque_2
 62
7
100
AcDbSpline
 70
0
 71
3
 72
13
 73
9
 74
7
 40
0.000000
 40
0.000000
 40
0.000000
 40
0.000000
 40
0.213092
 40
0.424421
 40
0.637513
 40
0.850605
 40
1.061934
 40
1.275026
 40
1.275026
 40
1.275026
 40
1.275026
 10
194.870328
 20
128.620220
 30
0.0
 10
194.799090
 20
128.625647
 30
0.0
 10
194.657203
 20
128.636455
 30
0.0
 10
194.458709
 20
128.721867
 30
0.0
 10
194.287893
 20
128.851813
 30
0.0
 10
194.157947
 20
129.022629
 30
0.0
 10
194.072535
 20
129.221123
 30
0.0
 10
194.061727
 20
129.363010
 30
0.0
 10
194.056300
 20
129.434248
 30
0.0
 11
194.870328
 21
128.620220
 31
0.0
 11
194.659069
 21
128.648109
 31
0.0
 11
194.463827
 21
128.728981
 31
0.0
 11
194.294723
 21
128.858643
 31
0.0
 11
194.165061
 21
129.027747
 31
0.0
 11
194.084189
 21
129.222989
 31
0.0
 11
194.056300
 21
129.434248
 31
0.0
  0
LINE
  5
154
100
AcDbEntity
  8
Calque_2
 62
7
100
AcDbLine
 10
194.870328
 20
130.620220
 30
0.0
 11
198.242272
 21
130.620220
 31
0.0
  0
SPLINE
  5
155
100
AcDbEntity
  8
Calque_2
 62
7
100
AcDbSpline
 70
0
 71
3
 72
13
 73
9
 74
7
 40
0.000000
 40
0.000000
 40
0.000000
 40
0.000000
 40
0.213092
 40
0.424421
 40
0.637513
 40
0.850605
 40
1.061934
 40
1.275026
 40
1.275026
 40
1.275026
 40
1.275026
 10
194.056300
 20
129.806192
 30
0.0
 10
194.061727
 20
129.877430
 30
0.0
 10
194.072535
 20
130.019317
 30
0.0
 10
194.157947
 20
130.217811
 30
0.0
 10
194.287893
 20
130.388627
 30
0.0
 10
194.458709
 20
130.518573
 30
0.0
 10
194.657203
 20
130.603985
 30
0.0
 10
194.799090
 20
130.614793
 30
0.0
 10
194.870328
 20
130.620220
 30
0.0
 11
194.056300
 21
129.806192
 31
0.0
 11
194.084189
 21
130.017451
 31
0.0
 11
194.165061
 21
130.212693
 31
0.0
 11
194.294723
 21
130.381797
 31
0.0
 11
194.463827
 21
130.511459
 31
0.0
 11
194.659069
 21
130.592331
 31
0.0
 11
194.870328
 21
130.620220
 31
0.0
  0
LINE
  5
156
100
AcDbEntity
  8
Calque_2
 62
7
100
AcDbLine
 10
199.056300
 20
129.806192
 30
0.0
 11
199.056300
 21
129.806192
 31
0.0
  0
LINE
  5
157
100
AcDbEntity
  8
Calque_2
 62
7
100
AcDbLine
 10
224.655590
 20
130.306192
 30
0.0
 11
224.655590
 21
128.934248
 31
0.0
  0
SPLINE
  5
158
100
AcDbEntity
  8
Calque_2
 62
7
100
AcDbSpline
 70
0
 71
3
 72
13
 73
9
 74
7
 40
0.000000
 40
0.000000
 40
0.000000
 40
0.000000
 40
0.213092
 40
0.424421
 40
0.637513
 40
0.850605
 40
1.061934
 40
1.275026
 40
1.275026
 40
1.275026
 40
1.275026
 10
198.242272
 20
130.620220
 30
0.0
 10
198.313510
 20
130.614793
 30
0.0
 10
198.455397
 20
130.603985
 30
0.0
 10
198.653891
 20
130.518573
 30
0.0
 10
198.824707
 20
130.388627
 30
0.0
 10
198.954653
 20
130.217811
 30
0.0
 10
199.040065
 20
130.019317
 30
0.0
 10
199.050873
 20
129.877430
 30
0.0
 10
199.056300
 20
129.806192
 30
0.0
 11
198.242272
 21
130.620220
 31
0.0
 11
198.453531
 21
130.592331
 31
0.0
 11
198.648773
 21
130.511459
 31
0.0
 11
198.817877
 21
130.381797
 31
0.0
 11
198.947539
 21
130.212693
 31
0.0
 11
199.028411
 21
130.017451
 31
0.0
 11
199.056300
 21
129.806192
 31
0.0
  0
LINE
  5
159
100
AcDbEntity
  8
Calque_2
 62
7
100
AcDbLine
 10
223.841562
 20
128.120220
 30
0.0
 11
220.469618
 21
128.120220
 31
0.0
  0
SPLINE
  5
15a
100
AcDbEntity
  8
Calque_2
 62
7
100
AcDbSpline
 70
0
 71
3
 72
13
 73
9
 74
7
 40
0.000000
 40
0.000000
 40
0.000000
 40
0.000000
 40
0.213092
 40
0.424421
 40
0.637513
 40
0.850605
 40
1.061934
 40
1.275026
 40
1.275026
 40
1.275026
 40
1.275026
 10
224.655590
 20
128.934248
 30
0.0
 10
224.650163
 20
128.863010
 30
0.0
 10
224.639355
 20
128.721123
 30
0.0
 10
224.553943
 20
128.522629
 30
0.0
 10
224.423997
 20
128.351813
 30
0.0
 10
224.253181
 20
128.221867
 30
0.0
 10
224.054687
 20
128.136455
 30
0.0
 10
223.912800
 20
128.125647
 30
0.0
 10
223.841562
 20
128.120220
 30
0.0
 11
224.655590
 21
128.934248
 31
0.0
 11
224.627701
 21
128.722989
 31
0.0
 11
224.546829
 21
128.527747
 31
0.0
 11
224.417167
 21
128.358643
 31
0.0
 11
224.248063
 21
128.228981
 31
0.0
 11
224.052821
 21
128.148109
 31
0.0
 11
223.841562
 21
128.120220
 31
0.0
  0
LINE
  5
15b
100
AcDbEntity
  8
Calque_2
 62
7
100
AcDbLine
 10
219.655590
 20
128.934248
 30
0.0
 11
219.655590
 21
130.306192
 31
0.0
  0
SPLINE
  5
15c
100
AcDbEntity
  8
Calque_2
 62
7
100
AcDbSpline
 70
0
 71
3
 72
13
 73
9
 74
7
 40
0.000000
 40
0.000000
 40
0.000000
 40
0.000000
 40
0.213092
 40
0.424421
 40
0.637513
 40
0.850605
 40
1.061934
 40
1.275026
 40
1.275026
 40
1.275026
 40
1.275026
 10
220.469618
 20
128.120220
 30
0.0
 10
220.398380
 20
128.125647
 30
0.0
 10
220.256493
 20
128.136455
 30
0.0
 10
220.057999
 20
128.221867
 30
0.0
 10
219.887183
 20
128.351813
 30
0.0
 10
219.757237
 20
128.522629
 30
0.0
 10
219.671825
 20
128.721123
 30
0.0
 10
219.661017
 20
128.863010
 30
0.0
 10
219.655590
 20
128.934248
 30
0.0
 11
220.469618
 21
128.120220
 31
0.0
 11
220.258359
 21
128.148109
 31
0.0
 11
220.063117
 21
128.228981
 31
0.0
 11
219.894013
 21
128.358643
 31
0.0
 11
219.764351
 21
128.527747
 31
0.0
 11
219.683479
 21
128.722989
 31
0.0
 11
219.655590
 21
128.934248
 31
0.0
  0
LINE
  5
15d
100
AcDbEntity
  8
Calque_2
 62
7
100
AcDbLine
 10
220.469618
 20
131.120220
 30
0.0
 11
223.841562
 21
131.120220
 31
0.0
  0
SPLINE
  5
15e
100
AcDbEntity
  8
Calque_2
 62
7
100
AcDbSpline
 70
0
 71
3
 72
13
 73
9
 74
7
 40
0.000000
 40
0.000000
 40
0.000000
 40
0.000000
 40
0.213092
 40
0.424421
 40
0.637513
 40
0.850605
 40
1.061934
 40
1.275026
 40
1.275026
 40
1.275026
 40
1.275026
 10
219.655590
 20
130.306192
 30
0.0
 10
219.661017
 20
130.377430
 30
0.0
 10
219.671825
 20
130.519317
 30
0.0
 10
219.757237
 20
130.717811
 30
0.0
 10
219.887183
 20
130.888627
 30
0.0
 10
220.057999
 20
131.018573
 30
0.0
 10
220.256493
 20
131.103985
 30
0.0
 10
220.398380
 20
131.114793
 30
0.0
 10
220.469618
 20
131.120220
 30
0.0
 11
219.655590
 21
130.306192
 31
0.0
 11
219.683479
 21
130.517451
 31
0.0
 11
219.764351
 21
130.712693
 31
0.0
 11
219.894013
 21
130.881797
 31
0.0
 11
220.063117
 21
131.011459
 31
0.0
 11
220.258359
 21
131.092331
 31
0.0
 11
220.469618
 21
131.120220
 31
0.0
  0
LINE
  5
15f
100
AcDbEntity
  8
Calque_2
 62
7
100
AcDbLine
 10
224.655590
 20
130.306192
 30
0.0
 11
224.655590
 21
130.306192
 31
0.0
  0
LINE
  5
160
100
AcDbEntity
  8
Calque_2
 62
7
100
AcDbLine
 10
250.900420
 20
130.806192
 30
0.0
 11
250.900420
 21
128.434248
 31
0.0
  0
SPLINE
  5
161
100
AcDbEntity
  8
Calque_2
 62
7
100
AcDbSpline
 70
0
 71
3
 72
13
 73
9
 74
7
 40
0.000000
 40
0.000000
 40
0.000000
 40
0.000000
 40
0.213092
 40
0.424421
 40
0.637513
 40
0.850605
 40
1.061934
 40
1.275026
 40
1.275026
 40
1.275026
 40
1.275026
 10
223.841562
 20
131.120220
 30
0.0
 10
223.912800
 20
131.114793
 30
0.0
 10
224.054687
 20
131.103985
 30
0.0
 10
224.253181
 20
131.018573
 30
0.0
 10
224.423997
 20
130.888627
 30
0.0
 10
224.553943
 20
130.717811
 30
0.0
 10
224.639355
 20
130.519317
 30
0.0
 10
224.650163
 20
130.377430
 30
0.0
 10
224.655590
 20
130.306192
 30
0.0
 11
223.841562
 21
131.120220
 31
0.0
 11
224.052821
 21
131.092331
 31
0.0
 11
224.248063
 21
131.011459
 31
0.0
 11
224.417167
 21
130.881797
 31
0.0
 11
224.546829
 21
130.712693
 31
0.0
 11
224.627701
 21
130.517451
 31
0.0
 11
224.655590
 21
130.306192
 31
0.0
  0
LINE
  5
162
100
AcDbEntity
  8
Calque_2
 62
7
100
AcDbLine
 10
250.086392
 20
127.620220
 30
0.0
 11
246.714448
 21
127.620220
 31
0.0
  0
SPLINE
  5
163
100
AcDbEntity
  8
Calque_2
 62
7
100
AcDbSpline
 70
0
 71
3
 72
13
 73
9
 74
7
 40
0.000000
 40
0.000000
 40
0.000000
 40
0.000000
 40
0.213092
 40
0.424421
 40
0.637513
 40
0.850605
 40
1.061934
 40
1.275026
 40
1.275026
 40
1.275026
 40
1.275026
 10
250.900420
 20
128.434248
 30
0.0
 10
250.894993
 20
128.363010
 30
0.0
 10
250.884185
 20
128.221123
 30
0.0
 10
250.798773
 20
128.022629
 30
0.0
 10
250.668827
 20
127.851813
 30
0.0
 10
250.498011
 20
127.721867
 30
0.0
 10
250.299517
 20
127.636455
 30
0.0
 10
250.157630
 20
127.625647
 30
0.0
 10
250.086392
 20
127.620220
 30
0.0
 11
250.900420
 21
128.434248
 31
0.0
 11
250.872531
 21
128.222989
 31
0.0
 11
250.791659
 21
128.027747
 31
0.0
 11
250.661997
 21
127.858643
 31
0.0
 11
250.492893
 21
127.728981
 31
0.0
 11
250.297651
 21
127.648109
 31
0.0
 11
250.086392
 21
127.620220
 31
0.0
  0
LINE
  5
164
100
AcDbEntity
  8
Calque_2
 62
7
100
AcDbLine
 10
245.900420
 20
128.434248
 30
0.0
 11
245.900420
 21
130.806192
 31
0.0
  0
SPLINE
  5
165
100
AcDbEntity
  8
Calque_2
 62
7
100
AcDbSpline
 70
0
 71
3
 72
13
 73
9
 74
7
 40
0.000000
 40
0.000000
 40
0.000000
 40
0.000000
 40
0.213092
 40
0.424421
 40
0.637513
 40
0.850605
 40
1.061934
 40
1.275026
 40
1.275026
 40
1.275026
 40
1.275026
 10
246.714448
 20
127.620220
 30
0.0
 10
246.643210
 20
127.625647
 30
0.0
 10
246.501323
 20
127.636455
 30
0.0
 10
246.302829
 20
127.721867
 30
0.0
 10
246.132013
 20
127.851813
 30
0.0
 10
246.002067
 20
128.022629
 30
0.0
 10
245.916655
 20
128.221123
 30
0.0
 10
245.905847
 20
128.363010
 30
0.0
 10
245.900420
 20
128.434248
 30
0.0
 11
246.714448
 21
127.620220
 31
0.0
 11
246.503189
 21
127.648109
 31
0.0
 11
246.307947
 21
127.728981
 31
0.0
 11
246.138843
 21
127.858643
 31
0.0
 11
246.009181
 21
128.027747
 31
0.0
 11
245.928309
 21
128.222989
 31
0.0
 11
245.900420
 21
128.434248
 31
0.0
  0
LINE
  5
166
100
AcDbEntity
  8
Calque_2
 62
7
100
AcDbLine
 10
246.714448
 20
131.620220
 30
0.0
 11
250.086392
 21
131.620220
 31
0.0
  0
SPLINE
  5
167
100
AcDbEntity
  8
Calque_2
 62
7
100
AcDbSpline
 70
0
 71
3
 72
13
 73
9
 74
7
 40
0.000000
 40
0.000000
 40
0.000000
 40
0.000000
 40
0.213092
 40
0.424421
 40
0.637513
 40
0.850605
 40
1.061934
 40
1.275026
 40
1.275026
 40
1.275026
 40
1.275026
 10
245.900420
 20
130.806192
 30
0.0
 10
245.905847
 20
130.877430
 30
0.0
 10
245.916655
 20
131.019317
 30
0.0
 10
246.002067
 20
131.217811
 30
0.0
 10
246.132013
 20
131.388627
 30
0.0
 10
246.302829
 20
131.518573
 30
0.0
 10
246.501323
 20
131.603985
 30
0.0
 10
246.643210
 20
131.614793
 30
0.0
 10
246.714448
 20
131.620220
 30
0.0
 11
245.900420
 21
130.806192
 31
0.0
 11
245.928309
 21
131.017451
 31
0.0
 11
246.009181
 21
131.212693
 31
0.0
 11
246.138843
 21
131.381797
 31
0.0
 11
246.307947
 21
131.511459
 31
0.0
 11
246.503189
 21
131.592331
 31
0.0
 11
246.714448
 21
131.620220
 31
0.0
  0
LINE
  5
168
100
AcDbEntity
  8
Calque_2
 62
7
100
AcDbLine
 10
250.900420
 20
130.806192
 30
0.0
 11
250.900420
 21
130.806192
 31
0.0
  0
LINE
  5
169
100
AcDbEntity
  8
Calque_2
 62
7
100
AcDbLine
 10
130.529170
 20
171.603119
 30
0.0
 11
130.529170
 21
171.603119
 31
0.0
  0
SPLINE
  5
16a
100
AcDbEntity
  8
Calque_2
 62
7
100
AcDbSpline
 70
0
 71
3
 72
13
 73
9
 74
7
 40
0.000000
 40
0.000000
 40
0.000000
 40
0.000000
 40
0.213092
 40
0.424421
 40
0.637513
 40
0.850605
 40
1.061934
 40
1.275026
 40
1.275026
 40
1.275026
 40
1.275026
 10
250.086392
 20
131.620220
 30
0.0
 10
250.157630
 20
131.614793
 30
0.0
 10
250.299517
 20
131.603985
 30
0.0
 10
250.498011
 20
131.518573
 30
0.0
 10
250.668827
 20
131.388627
 30
0.0
 10
250.798773
 20
131.217811
 30
0.0
 10
250.884185
 20
131.019317
 30
0.0
 10
250.894993
 20
130.877430
 30
0.0
 10
250.900420
 20
130.806192
 30
0.0
 11
250.086392
 21
131.620220
 31
0.0
 11
250.297651
 21
131.592331
 31
0.0
 11
250.492893
 21
131.511459
 31
0.0
 11
250.661997
 21
131.381797
 31
0.0
 11
250.791659
 21
131.212693
 31
0.0
 11
250.872531
 21
131.017451
 31
0.0
 11
250.900420
 21
130.806192
 31
0.0
  0
LINE
  5
16b
100
AcDbEntity
  8
Calque_2
 62
7
100
AcDbLine
 10
131.029170
 20
170.789091
 30
0.0
 11
131.029170
 21
167.417147
 31
0.0
  0
SPLINE
  5
16c
100
AcDbEntity
  8
Calque_2
 62
7
100
AcDbSpline
 70
0
 71
3
 72
13
 73
9
 74
7
 40
0.000000
 40
0.000000
 40
0.000000
 40
0.000000
 40
0.132725
 40
0.277369
 40
0.443504
 40
0.630424
 40
0.831886
 40
1.043838
 40
1.043838
 40
1.043838
 40
1.043838
 10
130.529170
 20
171.603119
 30
0.0
 10
130.573647
 20
171.597226
 30
0.0
 10
130.666594
 20
171.584912
 30
0.0
 10
130.789599
 20
171.493915
 30
0.0
 10
130.892270
 20
171.362474
 30
0.0
 10
130.969357
 20
171.192853
 30
0.0
 10
131.019648
 20
170.997813
 30
0.0
 10
131.025943
 20
170.859832
 30
0.0
 10
131.029170
 20
170.789091
 30
0.0
 11
130.529170
 21
171.603119
 31
0.0
 11
130.658932
 21
171.575230
 31
0.0
 11
130.778855
 21
171.494358
 31
0.0
 11
130.882723
 21
171.364696
 31
0.0
 11
130.962366
 21
171.195592
 31
0.0
 11
131.012040
 21
171.000350
 31
0.0
 11
131.029170
 21
170.789091
 31
0.0
  0
LINE
  5
16d
100
AcDbEntity
  8
Calque_2
 62
7
100
AcDbLine
 10
130.529170
 20
166.603119
 30
0.0
 11
130.529170
 21
166.603119
 31
0.0
  0
LINE
  5
16e
100
AcDbEntity
  8
Calque_2
 62
7
100
AcDbLine
 10
130.029170
 20
167.417147
 30
0.0
 11
130.029170
 21
170.789091
 31
0.0
  0
SPLINE
  5
16f
100
AcDbEntity
  8
Calque_2
 62
7
100
AcDbSpline
 70
0
 71
3
 72
19
 73
15
 74
13
 40
0.000000
 40
0.000000
 40
0.000000
 40
0.000000
 40
0.211953
 40
0.413415
 40
0.600334
 40
0.766469
 40
0.911114
 40
1.043838
 40
1.176563
 40
1.321207
 40
1.487343
 40
1.674262
 40
1.875724
 40
2.087677
 40
2.087677
 40
2.087677
 40
2.087677
 10
131.029170
 20
167.417147
 30
0.0
 10
131.025943
 20
167.346415
 30
0.0
 10
131.019648
 20
167.208450
 30
0.0
 10
130.969357
 20
167.013292
 30
0.0
 10
130.892270
 20
166.844073
 30
0.0
 10
130.789599
 20
166.711363
 30
0.0
 10
130.666594
 20
166.624301
 30
0.0
 10
130.529170
 20
166.592983
 30
0.0
 10
130.391746
 20
166.624301
 30
0.0
 10
130.268741
 20
166.711363
 30
0.0
 10
130.166070
 20
166.844073
 30
0.0
 10
130.088983
 20
167.013292
 30
0.0
 10
130.038692
 20
167.208450
 30
0.0
 10
130.032397
 20
167.346415
 30
0.0
 10
130.029170
 20
167.417147
 30
0.0
 11
131.029170
 21
167.417147
 31
0.0
 11
131.012040
 21
167.205888
 31
0.0
 11
130.962366
 21
167.010646
 31
0.0
 11
130.882723
 21
166.841542
 31
0.0
 11
130.778855
 21
166.711880
 31
0.0
 11
130.658932
 21
166.631008
 31
0.0
 11
130.529170
 21
166.603119
 31
0.0
 11
130.399408
 21
166.631008
 31
0.0
 11
130.279485
 21
166.711880
 31
0.0
 11
130.175617
 21
166.841542
 31
0.0
 11
130.095974
 21
167.010646
 31
0.0
 11
130.046300
 21
167.205888
 31
0.0
 11
130.029170
 21
167.417147
 31
0.0
  0
LINE
  5
170
100
AcDbEntity
  8
Calque_2
 62
7
100
AcDbLine
 10
130.529170
 20
171.603119
 30
0.0
 11
130.529170
 21
171.603119
 31
0.0
  0
LINE
  5
171
100
AcDbEntity
  8
Calque_2
 62
7
100
AcDbLine
 10
130.343218
 20
198.100773
 30
0.0
 11
130.715162
 21
198.100773
 31
0.0
  0
SPLINE
  5
172
100
AcDbEntity
  8
Calque_2
 62
7
100
AcDbSpline
 70
0
 71
3
 72
13
 73
9
 74
7
 40
0.000000
 40
0.000000
 40
0.000000
 40
0.000000
 40
0.211953
 40
0.413415
 40
0.600334
 40
0.766469
 40
0.911114
 40
1.043838
 40
1.043838
 40
1.043838
 40
1.043838
 10
130.029170
 20
170.789091
 30
0.0
 10
130.032397
 20
170.859832
 30
0.0
 10
130.038692
 20
170.997813
 30
0.0
 10
130.088983
 20
171.192853
 30
0.0
 10
130.166070
 20
171.362474
 30
0.0
 10
130.268741
 20
171.493915
 30
0.0
 10
130.391746
 20
171.584912
 30
0.0
 10
130.484693
 20
171.597226
 30
0.0
 10
130.529170
 20
171.603119
 30
0.0
 11
130.029170
 21
170.789091
 31
0.0
 11
130.046300
 21
171.000350
 31
0.0
 11
130.095974
 21
171.195592
 31
0.0
 11
130.175617
 21
171.364696
 31
0.0
 11
130.279485
 21
171.494358
 31
0.0
 11
130.399408
 21
171.575230
 31
0.0
 11
130.529170
 21
171.603119
 31
0.0
  0
LINE
  5
173
100
AcDbEntity
  8
Calque_2
 62
7
100
AcDbLine
 10
131.529190
 20
197.286745
 30
0.0
 11
131.529190
 21
193.914801
 31
0.0
  0
SPLINE
  5
174
100
AcDbEntity
  8
Calque_2
 62
7
100
AcDbSpline
 70
0
 71
3
 72
13
 73
9
 74
7
 40
0.000000
 40
0.000000
 40
0.000000
 40
0.000000
 40
0.213092
 40
0.424421
 40
0.637513
 40
0.850605
 40
1.061934
 40
1.275026
 40
1.275026
 40
1.275026
 40
1.275026
 10
130.715162
 20
198.100773
 30
0.0
 10
130.786400
 20
198.095346
 30
0.0
 10
130.928287
 20
198.084538
 30
0.0
 10
131.126781
 20
197.999126
 30
0.0
 10
131.297597
 20
197.869180
 30
0.0
 10
131.427543
 20
197.698364
 30
0.0
 10
131.512955
 20
197.499870
 30
0.0
 10
131.523763
 20
197.357983
 30
0.0
 10
131.529190
 20
197.286745
 30
0.0
 11
130.715162
 21
198.100773
 31
0.0
 11
130.926421
 21
198.072884
 31
0.0
 11
131.121663
 21
197.992012
 31
0.0
 11
131.290767
 21
197.862350
 31
0.0
 11
131.420429
 21
197.693246
 31
0.0
 11
131.501301
 21
197.498004
 31
0.0
 11
131.529190
 21
197.286745
 31
0.0
  0
LINE
  5
175
100
AcDbEntity
  8
Calque_2
 62
7
100
AcDbLine
 10
130.715162
 20
193.100773
 30
0.0
 11
130.343218
 21
193.100773
 31
0.0
  0
SPLINE
  5
176
100
AcDbEntity
  8
Calque_2
 62
7
100
AcDbSpline
 70
0
 71
3
 72
13
 73
9
 74
7
 40
0.000000
 40
0.000000
 40
0.000000
 40
0.000000
 40
0.213092
 40
0.424421
 40
0.637513
 40
0.850605
 40
1.061934
 40
1.275026
 40
1.275026
 40
1.275026
 40
1.275026
 10
131.529190
 20
193.914801
 30
0.0
 10
131.523763
 20
193.843563
 30
0.0
 10
131.512955
 20
193.701676
 30
0.0
 10
131.427543
 20
193.503182
 30
0.0
 10
131.297597
 20
193.332366
 30
0.0
 10
131.126781
 20
193.202420
 30
0.0
 10
130.928287
 20
193.117008
 30
0.0
 10
130.786400
 20
193.106200
 30
0.0
 10
130.715162
 20
193.100773
 30
0.0
 11
131.529190
 21
193.914801
 31
0.0
 11
131.501301
 21
193.703542
 31
0.0
 11
131.420429
 21
193.508300
 31
0.0
 11
131.290767
 21
193.339196
 31
0.0
 11
131.121663
 21
193.209534
 31
0.0
 11
130.926421
 21
193.128662
 31
0.0
 11
130.715162
 21
193.100773
 31
0.0
  0
LINE
  5
177
100
AcDbEntity
  8
Calque_2
 62
7
100
AcDbLine
 10
129.529190
 20
193.914801
 30
0.0
 11
129.529190
 21
197.286745
 31
0.0
  0
SPLINE
  5
178
100
AcDbEntity
  8
Calque_2
 62
7
100
AcDbSpline
 70
0
 71
3
 72
13
 73
9
 74
7
 40
0.000000
 40
0.000000
 40
0.000000
 40
0.000000
 40
0.213092
 40
0.424421
 40
0.637513
 40
0.850605
 40
1.061934
 40
1.275026
 40
1.275026
 40
1.275026
 40
1.275026
 10
130.343218
 20
193.100773
 30
0.0
 10
130.271980
 20
193.106200
 30
0.0
 10
130.130093
 20
193.117008
 30
0.0
 10
129.931599
 20
193.202420
 30
0.0
 10
129.760783
 20
193.332366
 30
0.0
 10
129.630837
 20
193.503182
 30
0.0
 10
129.545425
 20
193.701676
 30
0.0
 10
129.534617
 20
193.843563
 30
0.0
 10
129.529190
 20
193.914801
 30
0.0
 11
130.343218
 21
193.100773
 31
0.0
 11
130.131959
 21
193.128662
 31
0.0
 11
129.936717
 21
193.209534
 31
0.0
 11
129.767613
 21
193.339196
 31
0.0
 11
129.637951
 21
193.508300
 31
0.0
 11
129.557079
 21
193.703542
 31
0.0
 11
129.529190
 21
193.914801
 31
0.0
  0
LINE
  5
179
100
AcDbEntity
  8
Calque_2
 62
7
100
AcDbLine
 10
130.343218
 20
198.100773
 30
0.0
 11
130.343218
 21
198.100773
 31
0.0
  0
LINE
  5
17a
100
AcDbEntity
  8
Calque_2
 62
7
100
AcDbLine
 10
129.843218
 20
223.700066
 30
0.0
 11
131.215162
 21
223.700066
 31
0.0
  0
SPLINE
  5
17b
100
AcDbEntity
  8
Calque_2
 62
7
100
AcDbSpline
 70
0
 71
3
 72
13
 73
9
 74
7
 40
0.000000
 40
0.000000
 40
0.000000
 40
0.000000
 40
0.213092
 40
0.424421
 40
0.637513
 40
0.850605
 40
1.061934
 40
1.275026
 40
1.275026
 40
1.275026
 40
1.275026
 10
129.529190
 20
197.286745
 30
0.0
 10
129.534617
 20
197.357983
 30
0.0
 10
129.545425
 20
197.499870
 30
0.0
 10
129.630837
 20
197.698364
 30
0.0
 10
129.760783
 20
197.869180
 30
0.0
 10
129.931599
 20
197.999126
 30
0.0
 10
130.130093
 20
198.084538
 30
0.0
 10
130.271980
 20
198.095346
 30
0.0
 10
130.343218
 20
198.100773
 30
0.0
 11
129.529190
 21
197.286745
 31
0.0
 11
129.557079
 21
197.498004
 31
0.0
 11
129.637951
 21
197.693246
 31
0.0
 11
129.767613
 21
197.862350
 31
0.0
 11
129.936717
 21
197.992012
 31
0.0
 11
130.131959
 21
198.072884
 31
0.0
 11
130.343218
 21
198.100773
 31
0.0
  0
LINE
  5
17c
100
AcDbEntity
  8
Calque_2
 62
7
100
AcDbLine
 10
132.029190
 20
222.886038
 30
0.0
 11
132.029190
 21
219.514094
 31
0.0
  0
SPLINE
  5
17d
100
AcDbEntity
  8
Calque_2
 62
7
100
AcDbSpline
 70
0
 71
3
 72
13
 73
9
 74
7
 40
0.000000
 40
0.000000
 40
0.000000
 40
0.000000
 40
0.213092
 40
0.424421
 40
0.637513
 40
0.850605
 40
1.061934
 40
1.275026
 40
1.275026
 40
1.275026
 40
1.275026
 10
131.215162
 20
223.700066
 30
0.0
 10
131.286400
 20
223.694639
 30
0.0
 10
131.428287
 20
223.683831
 30
0.0
 10
131.626781
 20
223.598419
 30
0.0
 10
131.797597
 20
223.468473
 30
0.0
 10
131.927543
 20
223.297657
 30
0.0
 10
132.012955
 20
223.099163
 30
0.0
 10
132.023763
 20
222.957276
 30
0.0
 10
132.029190
 20
222.886038
 30
0.0
 11
131.215162
 21
223.700066
 31
0.0
 11
131.426421
 21
223.672177
 31
0.0
 11
131.621663
 21
223.591305
 31
0.0
 11
131.790767
 21
223.461643
 31
0.0
 11
131.920429
 21
223.292539
 31
0.0
 11
132.001301
 21
223.097297
 31
0.0
 11
132.029190
 21
222.886038
 31
0.0
  0
LINE
  5
17e
100
AcDbEntity
  8
Calque_2
 62
7
100
AcDbLine
 10
131.215162
 20
218.700066
 30
0.0
 11
129.843218
 21
218.700066
 31
0.0
  0
SPLINE
  5
17f
100
AcDbEntity
  8
Calque_2
 62
7
100
AcDbSpline
 70
0
 71
3
 72
13
 73
9
 74
7
 40
0.000000
 40
0.000000
 40
0.000000
 40
0.000000
 40
0.213092
 40
0.424421
 40
0.637513
 40
0.850605
 40
1.061934
 40
1.275026
 40
1.275026
 40
1.275026
 40
1.275026
 10
132.029190
 20
219.514094
 30
0.0
 10
132.023763
 20
219.442856
 30
0.0
 10
132.012955
 20
219.300969
 30
0.0
 10
131.927543
 20
219.102475
 30
0.0
 10
131.797597
 20
218.931659
 30
0.0
 10
131.626781
 20
218.801713
 30
0.0
 10
131.428287
 20
218.716301
 30
0.0
 10
131.286400
 20
218.705493
 30
0.0
 10
131.215162
 20
218.700066
 30
0.0
 11
132.029190
 21
219.514094
 31
0.0
 11
132.001301
 21
219.302835
 31
0.0
 11
131.920429
 21
219.107593
 31
0.0
 11
131.790767
 21
218.938489
 31
0.0
 11
131.621663
 21
218.808827
 31
0.0
 11
131.426421
 21
218.727955
 31
0.0
 11
131.215162
 21
218.700066
 31
0.0
  0
LINE
  5
180
100
AcDbEntity
  8
Calque_2
 62
7
100
AcDbLine
 10
129.029190
 20
219.514094
 30
0.0
 11
129.029190
 21
222.886038
 31
0.0
  0
SPLINE
  5
181
100
AcDbEntity
  8
Calque_2
 62
7
100
AcDbSpline
 70
0
 71
3
 72
13
 73
9
 74
7
 40
0.000000
 40
0.000000
 40
0.000000
 40
0.000000
 40
0.213092
 40
0.424421
 40
0.637513
 40
0.850605
 40
1.061934
 40
1.275026
 40
1.275026
 40
1.275026
 40
1.275026
 10
129.843218
 20
218.700066
 30
0.0
 10
129.771980
 20
218.705493
 30
0.0
 10
129.630093
 20
218.716301
 30
0.0
 10
129.431599
 20
218.801713
 30
0.0
 10
129.260783
 20
218.931659
 30
0.0
 10
129.130837
 20
219.102475
 30
0.0
 10
129.045425
 20
219.300969
 30
0.0
 10
129.034617
 20
219.442856
 30
0.0
 10
129.029190
 20
219.514094
 30
0.0
 11
129.843218
 21
218.700066
 31
0.0
 11
129.631959
 21
218.727955
 31
0.0
 11
129.436717
 21
218.808827
 31
0.0
 11
129.267613
 21
218.938489
 31
0.0
 11
129.137951
 21
219.107593
 31
0.0
 11
129.057079
 21
219.302835
 31
0.0
 11
129.029190
 21
219.514094
 31
0.0
  0
LINE
  5
182
100
AcDbEntity
  8
Calque_2
 62
7
100
AcDbLine
 10
129.843218
 20
223.700066
 30
0.0
 11
129.843218
 21
223.700066
 31
0.0
  0
LINE
  5
183
100
AcDbEntity
  8
Calque_2
 62
7
100
AcDbLine
 10
129.343218
 20
249.944890
 30
0.0
 11
131.715162
 21
249.944890
 31
0.0
  0
SPLINE
  5
184
100
AcDbEntity
  8
Calque_2
 62
7
100
AcDbSpline
 70
0
 71
3
 72
13
 73
9
 74
7
 40
0.000000
 40
0.000000
 40
0.000000
 40
0.000000
 40
0.213092
 40
0.424421
 40
0.637513
 40
0.850605
 40
1.061934
 40
1.275026
 40
1.275026
 40
1.275026
 40
1.275026
 10
129.029190
 20
222.886038
 30
0.0
 10
129.034617
 20
222.957276
 30
0.0
 10
129.045425
 20
223.099163
 30
0.0
 10
129.130837
 20
223.297657
 30
0.0
 10
129.260783
 20
223.468473
 30
0.0
 10
129.431599
 20
223.598419
 30
0.0
 10
129.630093
 20
223.683831
 30
0.0
 10
129.771980
 20
223.694639
 30
0.0
 10
129.843218
 20
223.700066
 30
0.0
 11
129.029190
 21
222.886038
 31
0.0
 11
129.057079
 21
223.097297
 31
0.0
 11
129.137951
 21
223.292539
 31
0.0
 11
129.267613
 21
223.461643
 31
0.0
 11
129.436717
 21
223.591305
 31
0.0
 11
129.631959
 21
223.672177
 31
0.0
 11
129.843218
 21
223.700066
 31
0.0
  0
LINE
  5
185
100
AcDbEntity
  8
Calque_2
 62
7
100
AcDbLine
 10
132.529190
 20
249.130862
 30
0.0
 11
132.529190
 21
245.758918
 31
0.0
  0
SPLINE
  5
186
100
AcDbEntity
  8
Calque_2
 62
7
100
AcDbSpline
 70
0
 71
3
 72
13
 73
9
 74
7
 40
0.000000
 40
0.000000
 40
0.000000
 40
0.000000
 40
0.213092
 40
0.424421
 40
0.637513
 40
0.850605
 40
1.061934
 40
1.275026
 40
1.275026
 40
1.275026
 40
1.275026
 10
131.715162
 20
249.944890
 30
0.0
 10
131.786400
 20
249.939463
 30
0.0
 10
131.928287
 20
249.928655
 30
0.0
 10
132.126781
 20
249.843243
 30
0.0
 10
132.297597
 20
249.713297
 30
0.0
 10
132.427543
 20
249.542481
 30
0.0
 10
132.512955
 20
249.343987
 30
0.0
 10
132.523763
 20
249.202100
 30
0.0
 10
132.529190
 20
249.130862
 30
0.0
 11
131.715162
 21
249.944890
 31
0.0
 11
131.926421
 21
249.917001
 31
0.0
 11
132.121663
 21
249.836129
 31
0.0
 11
132.290767
 21
249.706467
 31
0.0
 11
132.420429
 21
249.537363
 31
0.0
 11
132.501301
 21
249.342121
 31
0.0
 11
132.529190
 21
249.130862
 31
0.0
  0
LINE
  5
187
100
AcDbEntity
  8
Calque_2
 62
7
100
AcDbLine
 10
131.715162
 20
244.944890
 30
0.0
 11
129.343218
 21
244.944890
 31
0.0
  0
SPLINE
  5
188
100
AcDbEntity
  8
Calque_2
 62
7
100
AcDbSpline
 70
0
 71
3
 72
13
 73
9
 74
7
 40
0.000000
 40
0.000000
 40
0.000000
 40
0.000000
 40
0.213092
 40
0.424421
 40
0.637513
 40
0.850605
 40
1.061934
 40
1.275026
 40
1.275026
 40
1.275026
 40
1.275026
 10
132.529190
 20
245.758918
 30
0.0
 10
132.523763
 20
245.687680
 30
0.0
 10
132.512955
 20
245.545793
 30
0.0
 10
132.427543
 20
245.347299
 30
0.0
 10
132.297597
 20
245.176483
 30
0.0
 10
132.126781
 20
245.046537
 30
0.0
 10
131.928287
 20
244.961125
 30
0.0
 10
131.786400
 20
244.950317
 30
0.0
 10
131.715162
 20
244.944890
 30
0.0
 11
132.529190
 21
245.758918
 31
0.0
 11
132.501301
 21
245.547659
 31
0.0
 11
132.420429
 21
245.352417
 31
0.0
 11
132.290767
 21
245.183313
 31
0.0
 11
132.121663
 21
245.053651
 31
0.0
 11
131.926421
 21
244.972779
 31
0.0
 11
131.715162
 21
244.944890
 31
0.0
  0
LINE
  5
189
100
AcDbEntity
  8
Calque_2
 62
7
100
AcDbLine
 10
128.529190
 20
245.758918
 30
0.0
 11
128.529190
 21
249.130862
 31
0.0
  0
SPLINE
  5
18a
100
AcDbEntity
  8
Calque_2
 62
7
100
AcDbSpline
 70
0
 71
3
 72
13
 73
9
 74
7
 40
0.000000
 40
0.000000
 40
0.000000
 40
0.000000
 40
0.213092
 40
0.424421
 40
0.637513
 40
0.850605
 40
1.061934
 40
1.275026
 40
1.275026
 40
1.275026
 40
1.275026
 10
129.343218
 20
244.944890
 30
0.0
 10
129.271980
 20
244.950317
 30
0.0
 10
129.130093
 20
244.961125
 30
0.0
 10
128.931599
 20
245.046537
 30
0.0
 10
128.760783
 20
245.176483
 30
0.0
 10
128.630837
 20
245.347299
 30
0.0
 10
128.545425
 20
245.545793
 30
0.0
 10
128.534617
 20
245.687680
 30
0.0
 10
128.529190
 20
245.758918
 30
0.0
 11
129.343218
 21
244.944890
 31
0.0
 11
129.131959
 21
244.972779
 31
0.0
 11
128.936717
 21
245.053651
 31
0.0
 11
128.767613
 21
245.183313
 31
0.0
 11
128.637951
 21
245.352417
 31
0.0
 11
128.557079
 21
245.547659
 31
0.0
 11
128.529190
 21
245.758918
 31
0.0
  0
LINE
  5
18b
100
AcDbEntity
  8
Calque_2
 62
7
100
AcDbLine
 10
129.343218
 20
249.944890
 30
0.0
 11
129.343218
 21
249.944890
 31
0.0
  0
LINE
  5
18c
100
AcDbEntity
  8
Calque_2
 62
7
100
AcDbLine
 10
88.546288
 20
129.573640
 30
0.0
 11
88.546288
 21
129.573640
 31
0.0
  0
SPLINE
  5
18d
100
AcDbEntity
  8
Calque_2
 62
7
100
AcDbSpline
 70
0
 71
3
 72
13
 73
9
 74
7
 40
0.000000
 40
0.000000
 40
0.000000
 40
0.000000
 40
0.213092
 40
0.424421
 40
0.637513
 40
0.850605
 40
1.061934
 40
1.275026
 40
1.275026
 40
1.275026
 40
1.275026
 10
128.529190
 20
249.130862
 30
0.0
 10
128.534617
 20
249.202100
 30
0.0
 10
128.545425
 20
249.343987
 30
0.0
 10
128.630837
 20
249.542481
 30
0.0
 10
128.760783
 20
249.713297
 30
0.0
 10
128.931599
 20
249.843243
 30
0.0
 10
129.130093
 20
249.928655
 30
0.0
 10
129.271980
 20
249.939463
 30
0.0
 10
129.343218
 20
249.944890
 30
0.0
 11
128.529190
 21
249.130862
 31
0.0
 11
128.557079
 21
249.342121
 31
0.0
 11
128.637951
 21
249.537363
 31
0.0
 11
128.767613
 21
249.706467
 31
0.0
 11
128.936717
 21
249.836129
 31
0.0
 11
129.131959
 21
249.917001
 31
0.0
 11
129.343218
 21
249.944890
 31
0.0
  0
LINE
  5
18e
100
AcDbEntity
  8
Calque_2
 62
7
100
AcDbLine
 10
89.360316
 20
130.073640
 30
0.0
 11
92.732260
 21
130.073640
 31
0.0
  0
SPLINE
  5
18f
100
AcDbEntity
  8
Calque_2
 62
7
100
AcDbSpline
 70
0
 71
3
 72
13
 73
9
 74
7
 40
0.000000
 40
0.000000
 40
0.000000
 40
0.000000
 40
0.132725
 40
0.277369
 40
0.443504
 40
0.630424
 40
0.831886
 40
1.043838
 40
1.043838
 40
1.043838
 40
1.043838
 10
88.546288
 20
129.573640
 30
0.0
 10
88.552181
 20
129.618117
 30
0.0
 10
88.564495
 20
129.711064
 30
0.0
 10
88.655492
 20
129.834069
 30
0.0
 10
88.786933
 20
129.936740
 30
0.0
 10
88.956554
 20
130.013827
 30
0.0
 10
89.151594
 20
130.064118
 30
0.0
 10
89.289575
 20
130.070413
 30
0.0
 10
89.360316
 20
130.073640
 30
0.0
 11
88.546288
 21
129.573640
 31
0.0
 11
88.574177
 21
129.703402
 31
0.0
 11
88.655049
 21
129.823325
 31
0.0
 11
88.784711
 21
129.927193
 31
0.0
 11
88.953815
 21
130.006836
 31
0.0
 11
89.149057
 21
130.056510
 31
0.0
 11
89.360316
 21
130.073640
 31
0.0
  0
LINE
  5
190
100
AcDbEntity
  8
Calque_2
 62
7
100
AcDbLine
 10
93.546288
 20
129.573640
 30
0.0
 11
93.546288
 21
129.573640
 31
0.0
  0
LINE
  5
191
100
AcDbEntity
  8
Calque_2
 62
7
100
AcDbLine
 10
92.732260
 20
129.073640
 30
0.0
 11
89.360316
 21
129.073640
 31
0.0
  0
SPLINE
  5
192
100
AcDbEntity
  8
Calque_2
 62
7
100
AcDbSpline
 70
0
 71
3
 72
19
 73
15
 74
13
 40
0.000000
 40
0.000000
 40
0.000000
 40
0.000000
 40
0.211953
 40
0.413415
 40
0.600334
 40
0.766469
 40
0.911114
 40
1.043838
 40
1.176563
 40
1.321207
 40
1.487343
 40
1.674262
 40
1.875724
 40
2.087677
 40
2.087677
 40
2.087677
 40
2.087677
 10
92.732260
 20
130.073640
 30
0.0
 10
92.802992
 20
130.070413
 30
0.0
 10
92.940957
 20
130.064118
 30
0.0
 10
93.136115
 20
130.013827
 30
0.0
 10
93.305334
 20
129.936740
 30
0.0
 10
93.438044
 20
129.834069
 30
0.0
 10
93.525106
 20
129.711064
 30
0.0
 10
93.556424
 20
129.573640
 30
0.0
 10
93.525106
 20
129.436216
 30
0.0
 10
93.438044
 20
129.313211
 30
0.0
 10
93.305334
 20
129.210540
 30
0.0
 10
93.136115
 20
129.133453
 30
0.0
 10
92.940957
 20
129.083162
 30
0.0
 10
92.802992
 20
129.076867
 30
0.0
 10
92.732260
 20
129.073640
 30
0.0
 11
92.732260
 21
130.073640
 31
0.0
 11
92.943519
 21
130.056510
 31
0.0
 11
93.138761
 21
130.006836
 31
0.0
 11
93.307865
 21
129.927193
 31
0.0
 11
93.437527
 21
129.823325
 31
0.0
 11
93.518399
 21
129.703402
 31
0.0
 11
93.546288
 21
129.573640
 31
0.0
 11
93.518399
 21
129.443878
 31
0.0
 11
93.437527
 21
129.323955
 31
0.0
 11
93.307865
 21
129.220087
 31
0.0
 11
93.138761
 21
129.140444
 31
0.0
 11
92.943519
 21
129.090770
 31
0.0
 11
92.732260
 21
129.073640
 31
0.0
  0
LINE
  5
193
100
AcDbEntity
  8
Calque_2
 62
7
100
AcDbLine
 10
88.546288
 20
129.573640
 30
0.0
 11
88.546288
 21
129.573640
 31
0.0
  0
LINE
  5
194
100
AcDbEntity
  8
Calque_2
 62
7
100
AcDbLine
 10
62.048637
 20
129.387678
 30
0.0
 11
62.048637
 21
129.759622
 31
0.0
  0
SPLINE
  5
195
100
AcDbEntity
  8
Calque_2
 62
7
100
AcDbSpline
 70
0
 71
3
 72
13
 73
9
 74
7
 40
0.000000
 40
0.000000
 40
0.000000
 40
0.000000
 40
0.211953
 40
0.413415
 40
0.600334
 40
0.766469
 40
0.911114
 40
1.043838
 40
1.043838
 40
1.043838
 40
1.043838
 10
89.360316
 20
129.073640
 30
0.0
 10
89.289575
 20
129.076867
 30
0.0
 10
89.151594
 20
129.083162
 30
0.0
 10
88.956554
 20
129.133453
 30
0.0
 10
88.786933
 20
129.210540
 30
0.0
 10
88.655492
 20
129.313211
 30
0.0
 10
88.564495
 20
129.436216
 30
0.0
 10
88.552181
 20
129.529163
 30
0.0
 10
88.546288
 20
129.573640
 30
0.0
 11
89.360316
 21
129.073640
 31
0.0
 11
89.149057
 21
129.090770
 31
0.0
 11
88.953815
 21
129.140444
 31
0.0
 11
88.784711
 21
129.220087
 31
0.0
 11
88.655049
 21
129.323955
 31
0.0
 11
88.574177
 21
129.443878
 31
0.0
 11
88.546288
 21
129.573640
 31
0.0
  0
LINE
  5
196
100
AcDbEntity
  8
Calque_2
 62
7
100
AcDbLine
 10
62.862665
 20
130.573650
 30
0.0
 11
66.234609
 21
130.573650
 31
0.0
  0
SPLINE
  5
197
100
AcDbEntity
  8
Calque_2
 62
7
100
AcDbSpline
 70
0
 71
3
 72
13
 73
9
 74
7
 40
0.000000
 40
0.000000
 40
0.000000
 40
0.000000
 40
0.213092
 40
0.424421
 40
0.637513
 40
0.850605
 40
1.061934
 40
1.275026
 40
1.275026
 40
1.275026
 40
1.275026
 10
62.048637
 20
129.759622
 30
0.0
 10
62.054064
 20
129.830860
 30
0.0
 10
62.064872
 20
129.972747
 30
0.0
 10
62.150284
 20
130.171241
 30
0.0
 10
62.280230
 20
130.342057
 30
0.0
 10
62.451046
 20
130.472003
 30
0.0
 10
62.649540
 20
130.557415
 30
0.0
 10
62.791427
 20
130.568223
 30
0.0
 10
62.862665
 20
130.573650
 30
0.0
 11
62.048637
 21
129.759622
 31
0.0
 11
62.076526
 21
129.970881
 31
0.0
 11
62.157398
 21
130.166123
 31
0.0
 11
62.287060
 21
130.335227
 31
0.0
 11
62.456164
 21
130.464889
 31
0.0
 11
62.651406
 21
130.545761
 31
0.0
 11
62.862665
 21
130.573650
 31
0.0
  0
LINE
  5
198
100
AcDbEntity
  8
Calque_2
 62
7
100
AcDbLine
 10
67.048637
 20
129.759622
 30
0.0
 11
67.048637
 21
129.387678
 31
0.0
  0
SPLINE
  5
199
100
AcDbEntity
  8
Calque_2
 62
7
100
AcDbSpline
 70
0
 71
3
 72
13
 73
9
 74
7
 40
0.000000
 40
0.000000
 40
0.000000
 40
0.000000
 40
0.213092
 40
0.424421
 40
0.637513
 40
0.850605
 40
1.061934
 40
1.275026
 40
1.275026
 40
1.275026
 40
1.275026
 10
66.234609
 20
130.573650
 30
0.0
 10
66.305847
 20
130.568223
 30
0.0
 10
66.447734
 20
130.557415
 30
0.0
 10
66.646228
 20
130.472003
 30
0.0
 10
66.817044
 20
130.342057
 30
0.0
 10
66.946990
 20
130.171241
 30
0.0
 10
67.032402
 20
129.972747
 30
0.0
 10
67.043210
 20
129.830860
 30
0.0
 10
67.048637
 20
129.759622
 30
0.0
 11
66.234609
 21
130.573650
 31
0.0
 11
66.445868
 21
130.545761
 31
0.0
 11
66.641110
 21
130.464889
 31
0.0
 11
66.810214
 21
130.335227
 31
0.0
 11
66.939876
 21
130.166123
 31
0.0
 11
67.020748
 21
129.970881
 31
0.0
 11
67.048637
 21
129.759622
 31
0.0
  0
LINE
  5
19a
100
AcDbEntity
  8
Calque_2
 62
7
100
AcDbLine
 10
66.234609
 20
128.573650
 30
0.0
 11
62.862665
 21
128.573650
 31
0.0
  0
SPLINE
  5
19b
100
AcDbEntity
  8
Calque_2
 62
7
100
AcDbSpline
 70
0
 71
3
 72
13
 73
9
 74
7
 40
0.000000
 40
0.000000
 40
0.000000
 40
0.000000
 40
0.213092
 40
0.424421
 40
0.637513
 40
0.850605
 40
1.061934
 40
1.275026
 40
1.275026
 40
1.275026
 40
1.275026
 10
67.048637
 20
129.387678
 30
0.0
 10
67.043210
 20
129.316440
 30
0.0
 10
67.032402
 20
129.174553
 30
0.0
 10
66.946990
 20
128.976059
 30
0.0
 10
66.817044
 20
128.805243
 30
0.0
 10
66.646228
 20
128.675297
 30
0.0
 10
66.447734
 20
128.589885
 30
0.0
 10
66.305847
 20
128.579077
 30
0.0
 10
66.234609
 20
128.573650
 30
0.0
 11
67.048637
 21
129.387678
 31
0.0
 11
67.020748
 21
129.176419
 31
0.0
 11
66.939876
 21
128.981177
 31
0.0
 11
66.810214
 21
128.812073
 31
0.0
 11
66.641110
 21
128.682411
 31
0.0
 11
66.445868
 21
128.601539
 31
0.0
 11
66.234609
 21
128.573650
 31
0.0
  0
LINE
  5
19c
100
AcDbEntity
  8
Calque_2
 62
7
100
AcDbLine
 10
62.048637
 20
129.387678
 30
0.0
 11
62.048637
 21
129.387678
 31
0.0
  0
LINE
  5
19d
100
AcDbEntity
  8
Calque_2
 62
7
100
AcDbLine
 10
36.449345
 20
128.887678
 30
0.0
 11
36.449345
 21
130.259622
 31
0.0
  0
SPLINE
  5
19e
100
AcDbEntity
  8
Calque_2
 62
7
100
AcDbSpline
 70
0
 71
3
 72
13
 73
9
 74
7
 40
0.000000
 40
0.000000
 40
0.000000
 40
0.000000
 40
0.213092
 40
0.424421
 40
0.637513
 40
0.850605
 40
1.061934
 40
1.275026
 40
1.275026
 40
1.275026
 40
1.275026
 10
62.862665
 20
128.573650
 30
0.0
 10
62.791427
 20
128.579077
 30
0.0
 10
62.649540
 20
128.589885
 30
0.0
 10
62.451046
 20
128.675297
 30
0.0
 10
62.280230
 20
128.805243
 30
0.0
 10
62.150284
 20
128.976059
 30
0.0
 10
62.064872
 20
129.174553
 30
0.0
 10
62.054064
 20
129.316440
 30
0.0
 10
62.048637
 20
129.387678
 30
0.0
 11
62.862665
 21
128.573650
 31
0.0
 11
62.651406
 21
128.601539
 31
0.0
 11
62.456164
 21
128.682411
 31
0.0
 11
62.287060
 21
128.812073
 31
0.0
 11
62.157398
 21
128.981177
 31
0.0
 11
62.076526
 21
129.176419
 31
0.0
 11
62.048637
 21
129.387678
 31
0.0
  0
LINE
  5
19f
100
AcDbEntity
  8
Calque_2
 62
7
100
AcDbLine
 10
37.263373
 20
131.073650
 30
0.0
 11
40.635317
 21
131.073650
 31
0.0
  0
SPLINE
  5
1a0
100
AcDbEntity
  8
Calque_2
 62
7
100
AcDbSpline
 70
0
 71
3
 72
13
 73
9
 74
7
 40
0.000000
 40
0.000000
 40
0.000000
 40
0.000000
 40
0.213092
 40
0.424421
 40
0.637513
 40
0.850605
 40
1.061934
 40
1.275026
 40
1.275026
 40
1.275026
 40
1.275026
 10
36.449345
 20
130.259622
 30
0.0
 10
36.454772
 20
130.330860
 30
0.0
 10
36.465580
 20
130.472747
 30
0.0
 10
36.550992
 20
130.671241
 30
0.0
 10
36.680938
 20
130.842057
 30
0.0
 10
36.851754
 20
130.972003
 30
0.0
 10
37.050248
 20
131.057415
 30
0.0
 10
37.192135
 20
131.068223
 30
0.0
 10
37.263373
 20
131.073650
 30
0.0
 11
36.449345
 21
130.259622
 31
0.0
 11
36.477234
 21
130.470881
 31
0.0
 11
36.558106
 21
130.666123
 31
0.0
 11
36.687768
 21
130.835227
 31
0.0
 11
36.856872
 21
130.964889
 31
0.0
 11
37.052114
 21
131.045761
 31
0.0
 11
37.263373
 21
131.073650
 31
0.0
  0
LINE
  5
1a1
100
AcDbEntity
  8
Calque_2
 62
7
100
AcDbLine
 10
41.449345
 20
130.259622
 30
0.0
 11
41.449345
 21
128.887678
 31
0.0
  0
SPLINE
  5
1a2
100
AcDbEntity
  8
Calque_2
 62
7
100
AcDbSpline
 70
0
 71
3
 72
13
 73
9
 74
7
 40
0.000000
 40
0.000000
 40
0.000000
 40
0.000000
 40
0.213092
 40
0.424421
 40
0.637513
 40
0.850605
 40
1.061934
 40
1.275026
 40
1.275026
 40
1.275026
 40
1.275026
 10
40.635317
 20
131.073650
 30
0.0
 10
40.706555
 20
131.068223
 30
0.0
 10
40.848442
 20
131.057415
 30
0.0
 10
41.046936
 20
130.972003
 30
0.0
 10
41.217752
 20
130.842057
 30
0.0
 10
41.347698
 20
130.671241
 30
0.0
 10
41.433110
 20
130.472747
 30
0.0
 10
41.443918
 20
130.330860
 30
0.0
 10
41.449345
 20
130.259622
 30
0.0
 11
40.635317
 21
131.073650
 31
0.0
 11
40.846576
 21
131.045761
 31
0.0
 11
41.041818
 21
130.964889
 31
0.0
 11
41.210922
 21
130.835227
 31
0.0
 11
41.340584
 21
130.666123
 31
0.0
 11
41.421456
 21
130.470881
 31
0.0
 11
41.449345
 21
130.259622
 31
0.0
  0
LINE
  5
1a3
100
AcDbEntity
  8
Calque_2
 62
7
100
AcDbLine
 10
40.635317
 20
128.073650
 30
0.0
 11
37.263373
 21
128.073650
 31
0.0
  0
SPLINE
  5
1a4
100
AcDbEntity
  8
Calque_2
 62
7
100
AcDbSpline
 70
0
 71
3
 72
13
 73
9
 74
7
 40
0.000000
 40
0.000000
 40
0.000000
 40
0.000000
 40
0.213092
 40
0.424421
 40
0.637513
 40
0.850605
 40
1.061934
 40
1.275026
 40
1.275026
 40
1.275026
 40
1.275026
 10
41.449345
 20
128.887678
 30
0.0
 10
41.443918
 20
128.816440
 30
0.0
 10
41.433110
 20
128.674553
 30
0.0
 10
41.347698
 20
128.476059
 30
0.0
 10
41.217752
 20
128.305243
 30
0.0
 10
41.046936
 20
128.175297
 30
0.0
 10
40.848442
 20
128.089885
 30
0.0
 10
40.706555
 20
128.079077
 30
0.0
 10
40.635317
 20
128.073650
 30
0.0
 11
41.449345
 21
128.887678
 31
0.0
 11
41.421456
 21
128.676419
 31
0.0
 11
41.340584
 21
128.481177
 31
0.0
 11
41.210922
 21
128.312073
 31
0.0
 11
41.041818
 21
128.182411
 31
0.0
 11
40.846576
 21
128.101539
 31
0.0
 11
40.635317
 21
128.073650
 31
0.0
  0
LINE
  5
1a5
100
AcDbEntity
  8
Calque_2
 62
7
100
AcDbLine
 10
36.449345
 20
128.887678
 30
0.0
 11
36.449345
 21
128.887678
 31
0.0
  0
LINE
  5
1a6
100
AcDbEntity
  8
Calque_2
 62
7
100
AcDbLine
 10
10.204520
 20
128.387678
 30
0.0
 11
10.204520
 21
130.759622
 31
0.0
  0
SPLINE
  5
1a7
100
AcDbEntity
  8
Calque_2
 62
7
100
AcDbSpline
 70
0
 71
3
 72
13
 73
9
 74
7
 40
0.000000
 40
0.000000
 40
0.000000
 40
0.000000
 40
0.213092
 40
0.424421
 40
0.637513
 40
0.850605
 40
1.061934
 40
1.275026
 40
1.275026
 40
1.275026
 40
1.275026
 10
37.263373
 20
128.073650
 30
0.0
 10
37.192135
 20
128.079077
 30
0.0
 10
37.050248
 20
128.089885
 30
0.0
 10
36.851754
 20
128.175297
 30
0.0
 10
36.680938
 20
128.305243
 30
0.0
 10
36.550992
 20
128.476059
 30
0.0
 10
36.465580
 20
128.674553
 30
0.0
 10
36.454772
 20
128.816440
 30
0.0
 10
36.449345
 20
128.887678
 30
0.0
 11
37.263373
 21
128.073650
 31
0.0
 11
37.052114
 21
128.101539
 31
0.0
 11
36.856872
 21
128.182411
 31
0.0
 11
36.687768
 21
128.312073
 31
0.0
 11
36.558106
 21
128.481177
 31
0.0
 11
36.477234
 21
128.676419
 31
0.0
 11
36.449345
 21
128.887678
 31
0.0
  0
LINE
  5
1a8
100
AcDbEntity
  8
Calque_2
 62
7
100
AcDbLine
 10
11.018548
 20
131.573650
 30
0.0
 11
14.390492
 21
131.573650
 31
0.0
  0
SPLINE
  5
1a9
100
AcDbEntity
  8
Calque_2
 62
7
100
AcDbSpline
 70
0
 71
3
 72
13
 73
9
 74
7
 40
0.000000
 40
0.000000
 40
0.000000
 40
0.000000
 40
0.213092
 40
0.424421
 40
0.637513
 40
0.850605
 40
1.061934
 40
1.275026
 40
1.275026
 40
1.275026
 40
1.275026
 10
10.204520
 20
130.759622
 30
0.0
 10
10.209947
 20
130.830860
 30
0.0
 10
10.220755
 20
130.972747
 30
0.0
 10
10.306167
 20
131.171241
 30
0.0
 10
10.436113
 20
131.342057
 30
0.0
 10
10.606929
 20
131.472003
 30
0.0
 10
10.805423
 20
131.557415
 30
0.0
 10
10.947310
 20
131.568223
 30
0.0
 10
11.018548
 20
131.573650
 30
0.0
 11
10.204520
 21
130.759622
 31
0.0
 11
10.232409
 21
130.970881
 31
0.0
 11
10.313281
 21
131.166123
 31
0.0
 11
10.442943
 21
131.335227
 31
0.0
 11
10.612047
 21
131.464889
 31
0.0
 11
10.807289
 21
131.545761
 31
0.0
 11
11.018548
 21
131.573650
 31
0.0
  0
LINE
  5
1aa
100
AcDbEntity
  8
Calque_2
 62
7
100
AcDbLine
 10
15.204520
 20
130.759622
 30
0.0
 11
15.204520
 21
128.387678
 31
0.0
  0
SPLINE
  5
1ab
100
AcDbEntity
  8
Calque_2
 62
7
100
AcDbSpline
 70
0
 71
3
 72
13
 73
9
 74
7
 40
0.000000
 40
0.000000
 40
0.000000
 40
0.000000
 40
0.213092
 40
0.424421
 40
0.637513
 40
0.850605
 40
1.061934
 40
1.275026
 40
1.275026
 40
1.275026
 40
1.275026
 10
14.390492
 20
131.573650
 30
0.0
 10
14.461730
 20
131.568223
 30
0.0
 10
14.603617
 20
131.557415
 30
0.0
 10
14.802111
 20
131.472003
 30
0.0
 10
14.972927
 20
131.342057
 30
0.0
 10
15.102873
 20
131.171241
 30
0.0
 10
15.188285
 20
130.972747
 30
0.0
 10
15.199093
 20
130.830860
 30
0.0
 10
15.204520
 20
130.759622
 30
0.0
 11
14.390492
 21
131.573650
 31
0.0
 11
14.601751
 21
131.545761
 31
0.0
 11
14.796993
 21
131.464889
 31
0.0
 11
14.966097
 21
131.335227
 31
0.0
 11
15.095759
 21
131.166123
 31
0.0
 11
15.176631
 21
130.970881
 31
0.0
 11
15.204520
 21
130.759622
 31
0.0
  0
LINE
  5
1ac
100
AcDbEntity
  8
Calque_2
 62
7
100
AcDbLine
 10
14.390492
 20
127.573650
 30
0.0
 11
11.018548
 21
127.573650
 31
0.0
  0
SPLINE
  5
1ad
100
AcDbEntity
  8
Calque_2
 62
7
100
AcDbSpline
 70
0
 71
3
 72
13
 73
9
 74
7
 40
0.000000
 40
0.000000
 40
0.000000
 40
0.000000
 40
0.213092
 40
0.424421
 40
0.637513
 40
0.850605
 40
1.061934
 40
1.275026
 40
1.275026
 40
1.275026
 40
1.275026
 10
15.204520
 20
128.387678
 30
0.0
 10
15.199093
 20
128.316440
 30
0.0
 10
15.188285
 20
128.174553
 30
0.0
 10
15.102873
 20
127.976059
 30
0.0
 10
14.972927
 20
127.805243
 30
0.0
 10
14.802111
 20
127.675297
 30
0.0
 10
14.603617
 20
127.589885
 30
0.0
 10
14.461730
 20
127.579077
 30
0.0
 10
14.390492
 20
127.573650
 30
0.0
 11
15.204520
 21
128.387678
 31
0.0
 11
15.176631
 21
128.176419
 31
0.0
 11
15.095759
 21
127.981177
 31
0.0
 11
14.966097
 21
127.812073
 31
0.0
 11
14.796993
 21
127.682411
 31
0.0
 11
14.601751
 21
127.601539
 31
0.0
 11
14.390492
 21
127.573650
 31
0.0
  0
LINE
  5
1ae
100
AcDbEntity
  8
Calque_2
 62
7
100
AcDbLine
 10
10.204520
 20
128.387678
 30
0.0
 11
10.204520
 21
128.387678
 31
0.0
  0
LINE
  5
1af
100
AcDbEntity
  8
Calque_2
 62
7
100
AcDbLine
 10
130.575760
 20
87.590760
 30
0.0
 11
130.575760
 21
87.590760
 31
0.0
  0
SPLINE
  5
1b0
100
AcDbEntity
  8
Calque_2
 62
7
100
AcDbSpline
 70
0
 71
3
 72
13
 73
9
 74
7
 40
0.000000
 40
0.000000
 40
0.000000
 40
0.000000
 40
0.213092
 40
0.424421
 40
0.637513
 40
0.850605
 40
1.061934
 40
1.275026
 40
1.275026
 40
1.275026
 40
1.275026
 10
11.018548
 20
127.573650
 30
0.0
 10
10.947310
 20
127.579077
 30
0.0
 10
10.805423
 20
127.589885
 30
0.0
 10
10.606929
 20
127.675297
 30
0.0
 10
10.436113
 20
127.805243
 30
0.0
 10
10.306167
 20
127.976059
 30
0.0
 10
10.220755
 20
128.174553
 30
0.0
 10
10.209947
 20
128.316440
 30
0.0
 10
10.204520
 20
128.387678
 30
0.0
 11
11.018548
 21
127.573650
 31
0.0
 11
10.807289
 21
127.601539
 31
0.0
 11
10.612047
 21
127.682411
 31
0.0
 11
10.442943
 21
127.812073
 31
0.0
 11
10.313281
 21
127.981177
 31
0.0
 11
10.232409
 21
128.176419
 31
0.0
 11
10.204520
 21
128.387678
 31
0.0
  0
LINE
  5
1b1
100
AcDbEntity
  8
Calque_2
 62
7
100
AcDbLine
 10
130.075760
 20
88.404788
 30
0.0
 11
130.075760
 21
91.776732
 31
0.0
  0
SPLINE
  5
1b2
100
AcDbEntity
  8
Calque_2
 62
7
100
AcDbSpline
 70
0
 71
3
 72
13
 73
9
 74
7
 40
0.000000
 40
0.000000
 40
0.000000
 40
0.000000
 40
0.132725
 40
0.277369
 40
0.443504
 40
0.630424
 40
0.831886
 40
1.043838
 40
1.043838
 40
1.043838
 40
1.043838
 10
130.575760
 20
87.590760
 30
0.0
 10
130.531283
 20
87.596653
 30
0.0
 10
130.438336
 20
87.608967
 30
0.0
 10
130.315331
 20
87.699964
 30
0.0
 10
130.212660
 20
87.831405
 30
0.0
 10
130.135573
 20
88.001026
 30
0.0
 10
130.085282
 20
88.196066
 30
0.0
 10
130.078987
 20
88.334047
 30
0.0
 10
130.075760
 20
88.404788
 30
0.0
 11
130.575760
 21
87.590760
 31
0.0
 11
130.445998
 21
87.618649
 31
0.0
 11
130.326075
 21
87.699521
 31
0.0
 11
130.222207
 21
87.829183
 31
0.0
 11
130.142564
 21
87.998287
 31
0.0
 11
130.092890
 21
88.193529
 31
0.0
 11
130.075760
 21
88.404788
 31
0.0
  0
LINE
  5
1b3
100
AcDbEntity
  8
Calque_2
 62
7
100
AcDbLine
 10
130.575760
 20
92.590760
 30
0.0
 11
130.575760
 21
92.590760
 31
0.0
  0
LINE
  5
1b4
100
AcDbEntity
  8
Calque_2
 62
7
100
AcDbLine
 10
131.075760
 20
91.776732
 30
0.0
 11
131.075760
 21
88.404788
 31
0.0
  0
SPLINE
  5
1b5
100
AcDbEntity
  8
Calque_2
 62
7
100
AcDbSpline
 70
0
 71
3
 72
19
 73
15
 74
13
 40
0.000000
 40
0.000000
 40
0.000000
 40
0.000000
 40
0.211953
 40
0.413415
 40
0.600334
 40
0.766469
 40
0.911114
 40
1.043838
 40
1.176563
 40
1.321207
 40
1.487343
 40
1.674262
 40
1.875724
 40
2.087677
 40
2.087677
 40
2.087677
 40
2.087677
 10
130.075760
 20
91.776732
 30
0.0
 10
130.078987
 20
91.847464
 30
0.0
 10
130.085282
 20
91.985429
 30
0.0
 10
130.135573
 20
92.180587
 30
0.0
 10
130.212660
 20
92.349806
 30
0.0
 10
130.315331
 20
92.482516
 30
0.0
 10
130.438336
 20
92.569578
 30
0.0
 10
130.575760
 20
92.600896
 30
0.0
 10
130.713184
 20
92.569578
 30
0.0
 10
130.836189
 20
92.482516
 30
0.0
 10
130.938860
 20
92.349806
 30
0.0
 10
131.015947
 20
92.180587
 30
0.0
 10
131.066238
 20
91.985429
 30
0.0
 10
131.072533
 20
91.847464
 30
0.0
 10
131.075760
 20
91.776732
 30
0.0
 11
130.075760
 21
91.776732
 31
0.0
 11
130.092890
 21
91.987991
 31
0.0
 11
130.142564
 21
92.183233
 31
0.0
 11
130.222207
 21
92.352337
 31
0.0
 11
130.326075
 21
92.481999
 31
0.0
 11
130.445998
 21
92.562871
 31
0.0
 11
130.575760
 21
92.590760
 31
0.0
 11
130.705522
 21
92.562871
 31
0.0
 11
130.825445
 21
92.481999
 31
0.0
 11
130.929313
 21
92.352337
 31
0.0
 11
131.008956
 21
92.183233
 31
0.0
 11
131.058630
 21
91.987991
 31
0.0
 11
131.075760
 21
91.776732
 31
0.0
  0
LINE
  5
1b6
100
AcDbEntity
  8
Calque_2
 62
7
100
AcDbLine
 10
130.575760
 20
87.590760
 30
0.0
 11
130.575760
 21
87.590760
 31
0.0
  0
LINE
  5
1b7
100
AcDbEntity
  8
Calque_2
 62
7
100
AcDbLine
 10
130.761712
 20
61.093110
 30
0.0
 11
130.389768
 21
61.093110
 31
0.0
  0
SPLINE
  5
1b8
100
AcDbEntity
  8
Calque_2
 62
7
100
AcDbSpline
 70
0
 71
3
 72
13
 73
9
 74
7
 40
0.000000
 40
0.000000
 40
0.000000
 40
0.000000
 40
0.211953
 40
0.413415
 40
0.600334
 40
0.766469
 40
0.911114
 40
1.043838
 40
1.043838
 40
1.043838
 40
1.043838
 10
131.075760
 20
88.404788
 30
0.0
 10
131.072533
 20
88.334047
 30
0.0
 10
131.066238
 20
88.196066
 30
0.0
 10
131.015947
 20
88.001026
 30
0.0
 10
130.938860
 20
87.831405
 30
0.0
 10
130.836189
 20
87.699964
 30
0.0
 10
130.713184
 20
87.608967
 30
0.0
 10
130.620237
 20
87.596653
 30
0.0
 10
130.575760
 20
87.590760
 30
0.0
 11
131.075760
 21
88.404788
 31
0.0
 11
131.058630
 21
88.193529
 31
0.0
 11
131.008956
 21
87.998287
 31
0.0
 11
130.929313
 21
87.829183
 31
0.0
 11
130.825445
 21
87.699521
 31
0.0
 11
130.705522
 21
87.618649
 31
0.0
 11
130.575760
 21
87.590760
 31
0.0
  0
LINE
  5
1b9
100
AcDbEntity
  8
Calque_2
 62
7
100
AcDbLine
 10
129.575740
 20
61.907138
 30
0.0
 11
129.575740
 21
65.279082
 31
0.0
  0
SPLINE
  5
1ba
100
AcDbEntity
  8
Calque_2
 62
7
100
AcDbSpline
 70
0
 71
3
 72
13
 73
9
 74
7
 40
0.000000
 40
0.000000
 40
0.000000
 40
0.000000
 40
0.213092
 40
0.424421
 40
0.637513
 40
0.850605
 40
1.061934
 40
1.275026
 40
1.275026
 40
1.275026
 40
1.275026
 10
130.389768
 20
61.093110
 30
0.0
 10
130.318530
 20
61.098537
 30
0.0
 10
130.176643
 20
61.109345
 30
0.0
 10
129.978149
 20
61.194757
 30
0.0
 10
129.807333
 20
61.324703
 30
0.0
 10
129.677387
 20
61.495519
 30
0.0
 10
129.591975
 20
61.694013
 30
0.0
 10
129.581167
 20
61.835900
 30
0.0
 10
129.575740
 20
61.907138
 30
0.0
 11
130.389768
 21
61.093110
 31
0.0
 11
130.178509
 21
61.120999
 31
0.0
 11
129.983267
 21
61.201871
 31
0.0
 11
129.814163
 21
61.331533
 31
0.0
 11
129.684501
 21
61.500637
 31
0.0
 11
129.603629
 21
61.695879
 31
0.0
 11
129.575740
 21
61.907138
 31
0.0
  0
LINE
  5
1bb
100
AcDbEntity
  8
Calque_2
 62
7
100
AcDbLine
 10
130.389768
 20
66.093110
 30
0.0
 11
130.761712
 21
66.093110
 31
0.0
  0
SPLINE
  5
1bc
100
AcDbEntity
  8
Calque_2
 62
7
100
AcDbSpline
 70
0
 71
3
 72
13
 73
9
 74
7
 40
0.000000
 40
0.000000
 40
0.000000
 40
0.000000
 40
0.213092
 40
0.424421
 40
0.637513
 40
0.850605
 40
1.061934
 40
1.275026
 40
1.275026
 40
1.275026
 40
1.275026
 10
129.575740
 20
65.279082
 30
0.0
 10
129.581167
 20
65.350320
 30
0.0
 10
129.591975
 20
65.492207
 30
0.0
 10
129.677387
 20
65.690701
 30
0.0
 10
129.807333
 20
65.861517
 30
0.0
 10
129.978149
 20
65.991463
 30
0.0
 10
130.176643
 20
66.076875
 30
0.0
 10
130.318530
 20
66.087683
 30
0.0
 10
130.389768
 20
66.093110
 30
0.0
 11
129.575740
 21
65.279082
 31
0.0
 11
129.603629
 21
65.490341
 31
0.0
 11
129.684501
 21
65.685583
 31
0.0
 11
129.814163
 21
65.854687
 31
0.0
 11
129.983267
 21
65.984349
 31
0.0
 11
130.178509
 21
66.065221
 31
0.0
 11
130.389768
 21
66.093110
 31
0.0
  0
LINE
  5
1bd
100
AcDbEntity
  8
Calque_2
 62
7
100
AcDbLine
 10
131.575740
 20
65.279082
 30
0.0
 11
131.575740
 21
61.907138
 31
0.0
  0
SPLINE
  5
1be
100
AcDbEntity
  8
Calque_2
 62
7
100
AcDbSpline
 70
0
 71
3
 72
13
 73
9
 74
7
 40
0.000000
 40
0.000000
 40
0.000000
 40
0.000000
 40
0.213092
 40
0.424421
 40
0.637513
 40
0.850605
 40
1.061934
 40
1.275026
 40
1.275026
 40
1.275026
 40
1.275026
 10
130.761712
 20
66.093110
 30
0.0
 10
130.832950
 20
66.087683
 30
0.0
 10
130.974837
 20
66.076875
 30
0.0
 10
131.173331
 20
65.991463
 30
0.0
 10
131.344147
 20
65.861517
 30
0.0
 10
131.474093
 20
65.690701
 30
0.0
 10
131.559505
 20
65.492207
 30
0.0
 10
131.570313
 20
65.350320
 30
0.0
 10
131.575740
 20
65.279082
 30
0.0
 11
130.761712
 21
66.093110
 31
0.0
 11
130.972971
 21
66.065221
 31
0.0
 11
131.168213
 21
65.984349
 31
0.0
 11
131.337317
 21
65.854687
 31
0.0
 11
131.466979
 21
65.685583
 31
0.0
 11
131.547851
 21
65.490341
 31
0.0
 11
131.575740
 21
65.279082
 31
0.0
  0
LINE
  5
1bf
100
AcDbEntity
  8
Calque_2
 62
7
100
AcDbLine
 10
130.761712
 20
61.093110
 30
0.0
 11
130.761712
 21
61.093110
 31
0.0
  0
LINE
  5
1c0
100
AcDbEntity
  8
Calque_2
 62
7
100
AcDbLine
 10
131.261712
 20
35.493820
 30
0.0
 11
129.889768
 21
35.493820
 31
0.0
  0
SPLINE
  5
1c1
100
AcDbEntity
  8
Calque_2
 62
7
100
AcDbSpline
 70
0
 71
3
 72
13
 73
9
 74
7
 40
0.000000
 40
0.000000
 40
0.000000
 40
0.000000
 40
0.213092
 40
0.424421
 40
0.637513
 40
0.850605
 40
1.061934
 40
1.275026
 40
1.275026
 40
1.275026
 40
1.275026
 10
131.575740
 20
61.907138
 30
0.0
 10
131.570313
 20
61.835900
 30
0.0
 10
131.559505
 20
61.694013
 30
0.0
 10
131.474093
 20
61.495519
 30
0.0
 10
131.344147
 20
61.324703
 30
0.0
 10
131.173331
 20
61.194757
 30
0.0
 10
130.974837
 20
61.109345
 30
0.0
 10
130.832950
 20
61.098537
 30
0.0
 10
130.761712
 20
61.093110
 30
0.0
 11
131.575740
 21
61.907138
 31
0.0
 11
131.547851
 21
61.695879
 31
0.0
 11
131.466979
 21
61.500637
 31
0.0
 11
131.337317
 21
61.331533
 31
0.0
 11
131.168213
 21
61.201871
 31
0.0
 11
130.972971
 21
61.120999
 31
0.0
 11
130.761712
 21
61.093110
 31
0.0
  0
LINE
  5
1c2
100
AcDbEntity
  8
Calque_2
 62
7
100
AcDbLine
 10
129.075740
 20
36.307848
 30
0.0
 11
129.075740
 21
39.679792
 31
0.0
  0
SPLINE
  5
1c3
100
AcDbEntity
  8
Calque_2
 62
7
100
AcDbSpline
 70
0
 71
3
 72
13
 73
9
 74
7
 40
0.000000
 40
0.000000
 40
0.000000
 40
0.000000
 40
0.213092
 40
0.424421
 40
0.637513
 40
0.850605
 40
1.061934
 40
1.275026
 40
1.275026
 40
1.275026
 40
1.275026
 10
129.889768
 20
35.493820
 30
0.0
 10
129.818530
 20
35.499247
 30
0.0
 10
129.676643
 20
35.510055
 30
0.0
 10
129.478149
 20
35.595467
 30
0.0
 10
129.307333
 20
35.725413
 30
0.0
 10
129.177387
 20
35.896229
 30
0.0
 10
129.091975
 20
36.094723
 30
0.0
 10
129.081167
 20
36.236610
 30
0.0
 10
129.075740
 20
36.307848
 30
0.0
 11
129.889768
 21
35.493820
 31
0.0
 11
129.678509
 21
35.521709
 31
0.0
 11
129.483267
 21
35.602581
 31
0.0
 11
129.314163
 21
35.732243
 31
0.0
 11
129.184501
 21
35.901347
 31
0.0
 11
129.103629
 21
36.096589
 31
0.0
 11
129.075740
 21
36.307848
 31
0.0
  0
LINE
  5
1c4
100
AcDbEntity
  8
Calque_2
 62
7
100
AcDbLine
 10
129.889768
 20
40.493820
 30
0.0
 11
131.261712
 21
40.493820
 31
0.0
  0
SPLINE
  5
1c5
100
AcDbEntity
  8
Calque_2
 62
7
100
AcDbSpline
 70
0
 71
3
 72
13
 73
9
 74
7
 40
0.000000
 40
0.000000
 40
0.000000
 40
0.000000
 40
0.213092
 40
0.424421
 40
0.637513
 40
0.850605
 40
1.061934
 40
1.275026
 40
1.275026
 40
1.275026
 40
1.275026
 10
129.075740
 20
39.679792
 30
0.0
 10
129.081167
 20
39.751030
 30
0.0
 10
129.091975
 20
39.892917
 30
0.0
 10
129.177387
 20
40.091411
 30
0.0
 10
129.307333
 20
40.262227
 30
0.0
 10
129.478149
 20
40.392173
 30
0.0
 10
129.676643
 20
40.477585
 30
0.0
 10
129.818530
 20
40.488393
 30
0.0
 10
129.889768
 20
40.493820
 30
0.0
 11
129.075740
 21
39.679792
 31
0.0
 11
129.103629
 21
39.891051
 31
0.0
 11
129.184501
 21
40.086293
 31
0.0
 11
129.314163
 21
40.255397
 31
0.0
 11
129.483267
 21
40.385059
 31
0.0
 11
129.678509
 21
40.465931
 31
0.0
 11
129.889768
 21
40.493820
 31
0.0
  0
LINE
  5
1c6
100
AcDbEntity
  8
Calque_2
 62
7
100
AcDbLine
 10
132.075740
 20
39.679792
 30
0.0
 11
132.075740
 21
36.307848
 31
0.0
  0
SPLINE
  5
1c7
100
AcDbEntity
  8
Calque_2
 62
7
100
AcDbSpline
 70
0
 71
3
 72
13
 73
9
 74
7
 40
0.000000
 40
0.000000
 40
0.000000
 40
0.000000
 40
0.213092
 40
0.424421
 40
0.637513
 40
0.850605
 40
1.061934
 40
1.275026
 40
1.275026
 40
1.275026
 40
1.275026
 10
131.261712
 20
40.493820
 30
0.0
 10
131.332950
 20
40.488393
 30
0.0
 10
131.474837
 20
40.477585
 30
0.0
 10
131.673331
 20
40.392173
 30
0.0
 10
131.844147
 20
40.262227
 30
0.0
 10
131.974093
 20
40.091411
 30
0.0
 10
132.059505
 20
39.892917
 30
0.0
 10
132.070313
 20
39.751030
 30
0.0
 10
132.075740
 20
39.679792
 30
0.0
 11
131.261712
 21
40.493820
 31
0.0
 11
131.472971
 21
40.465931
 31
0.0
 11
131.668213
 21
40.385059
 31
0.0
 11
131.837317
 21
40.255397
 31
0.0
 11
131.966979
 21
40.086293
 31
0.0
 11
132.047851
 21
39.891051
 31
0.0
 11
132.075740
 21
39.679792
 31
0.0
  0
LINE
  5
1c8
100
AcDbEntity
  8
Calque_2
 62
7
100
AcDbLine
 10
131.261712
 20
35.493820
 30
0.0
 11
131.261712
 21
35.493820
 31
0.0
  0
LINE
  5
1c9
100
AcDbEntity
  8
Calque_2
 62
7
100
AcDbLine
 10
131.761712
 20
9.248990
 30
0.0
 11
129.389768
 21
9.248990
 31
0.0
  0
SPLINE
  5
1ca
100
AcDbEntity
  8
Calque_2
 62
7
100
AcDbSpline
 70
0
 71
3
 72
13
 73
9
 74
7
 40
0.000000
 40
0.000000
 40
0.000000
 40
0.000000
 40
0.213092
 40
0.424421
 40
0.637513
 40
0.850605
 40
1.061934
 40
1.275026
 40
1.275026
 40
1.275026
 40
1.275026
 10
132.075740
 20
36.307848
 30
0.0
 10
132.070313
 20
36.236610
 30
0.0
 10
132.059505
 20
36.094723
 30
0.0
 10
131.974093
 20
35.896229
 30
0.0
 10
131.844147
 20
35.725413
 30
0.0
 10
131.673331
 20
35.595467
 30
0.0
 10
131.474837
 20
35.510055
 30
0.0
 10
131.332950
 20
35.499247
 30
0.0
 10
131.261712
 20
35.493820
 30
0.0
 11
132.075740
 21
36.307848
 31
0.0
 11
132.047851
 21
36.096589
 31
0.0
 11
131.966979
 21
35.901347
 31
0.0
 11
131.837317
 21
35.732243
 31
0.0
 11
131.668213
 21
35.602581
 31
0.0
 11
131.472971
 21
35.521709
 31
0.0
 11
131.261712
 21
35.493820
 31
0.0
  0
LINE
  5
1cb
100
AcDbEntity
  8
Calque_2
 62
7
100
AcDbLine
 10
128.575740
 20
10.063018
 30
0.0
 11
128.575740
 21
13.434962
 31
0.0
  0
SPLINE
  5
1cc
100
AcDbEntity
  8
Calque_2
 62
7
100
AcDbSpline
 70
0
 71
3
 72
13
 73
9
 74
7
 40
0.000000
 40
0.000000
 40
0.000000
 40
0.000000
 40
0.213092
 40
0.424421
 40
0.637513
 40
0.850605
 40
1.061934
 40
1.275026
 40
1.275026
 40
1.275026
 40
1.275026
 10
129.389768
 20
9.248990
 30
0.0
 10
129.318530
 20
9.254417
 30
0.0
 10
129.176643
 20
9.265225
 30
0.0
 10
128.978149
 20
9.350637
 30
0.0
 10
128.807333
 20
9.480583
 30
0.0
 10
128.677387
 20
9.651399
 30
0.0
 10
128.591975
 20
9.849893
 30
0.0
 10
128.581167
 20
9.991780
 30
0.0
 10
128.575740
 20
10.063018
 30
0.0
 11
129.389768
 21
9.248990
 31
0.0
 11
129.178509
 21
9.276879
 31
0.0
 11
128.983267
 21
9.357751
 31
0.0
 11
128.814163
 21
9.487413
 31
0.0
 11
128.684501
 21
9.656517
 31
0.0
 11
128.603629
 21
9.851759
 31
0.0
 11
128.575740
 21
10.063018
 31
0.0
  0
LINE
  5
1cd
100
AcDbEntity
  8
Calque_2
 62
7
100
AcDbLine
 10
129.389768
 20
14.248990
 30
0.0
 11
131.761712
 21
14.248990
 31
0.0
  0
SPLINE
  5
1ce
100
AcDbEntity
  8
Calque_2
 62
7
100
AcDbSpline
 70
0
 71
3
 72
13
 73
9
 74
7
 40
0.000000
 40
0.000000
 40
0.000000
 40
0.000000
 40
0.213092
 40
0.424421
 40
0.637513
 40
0.850605
 40
1.061934
 40
1.275026
 40
1.275026
 40
1.275026
 40
1.275026
 10
128.575740
 20
13.434962
 30
0.0
 10
128.581167
 20
13.506200
 30
0.0
 10
128.591975
 20
13.648087
 30
0.0
 10
128.677387
 20
13.846581
 30
0.0
 10
128.807333
 20
14.017397
 30
0.0
 10
128.978149
 20
14.147343
 30
0.0
 10
129.176643
 20
14.232755
 30
0.0
 10
129.318530
 20
14.243563
 30
0.0
 10
129.389768
 20
14.248990
 30
0.0
 11
128.575740
 21
13.434962
 31
0.0
 11
128.603629
 21
13.646221
 31
0.0
 11
128.684501
 21
13.841463
 31
0.0
 11
128.814163
 21
14.010567
 31
0.0
 11
128.983267
 21
14.140229
 31
0.0
 11
129.178509
 21
14.221101
 31
0.0
 11
129.389768
 21
14.248990
 31
0.0
  0
LINE
  5
1cf
100
AcDbEntity
  8
Calque_2
 62
7
100
AcDbLine
 10
132.575740
 20
13.434962
 30
0.0
 11
132.575740
 21
10.063018
 31
0.0
  0
SPLINE
  5
1d0
100
AcDbEntity
  8
Calque_2
 62
7
100
AcDbSpline
 70
0
 71
3
 72
13
 73
9
 74
7
 40
0.000000
 40
0.000000
 40
0.000000
 40
0.000000
 40
0.213092
 40
0.424421
 40
0.637513
 40
0.850605
 40
1.061934
 40
1.275026
 40
1.275026
 40
1.275026
 40
1.275026
 10
131.761712
 20
14.248990
 30
0.0
 10
131.832950
 20
14.243563
 30
0.0
 10
131.974837
 20
14.232755
 30
0.0
 10
132.173331
 20
14.147343
 30
0.0
 10
132.344147
 20
14.017397
 30
0.0
 10
132.474093
 20
13.846581
 30
0.0
 10
132.559505
 20
13.648087
 30
0.0
 10
132.570313
 20
13.506200
 30
0.0
 10
132.575740
 20
13.434962
 30
0.0
 11
131.761712
 21
14.248990
 31
0.0
 11
131.972971
 21
14.221101
 31
0.0
 11
132.168213
 21
14.140229
 31
0.0
 11
132.337317
 21
14.010567
 31
0.0
 11
132.466979
 21
13.841463
 31
0.0
 11
132.547851
 21
13.646221
 31
0.0
 11
132.575740
 21
13.434962
 31
0.0
  0
LINE
  5
1d1
100
AcDbEntity
  8
Calque_2
 62
7
100
AcDbLine
 10
131.761712
 20
9.248990
 30
0.0
 11
131.761712
 21
9.248990
 31
0.0
  0
LINE
  5
1d2
100
AcDbEntity
  8
Calque_2
 62
7
100
AcDbLine
 10
160.271794
 20
99.910561
 30
0.0
 11
160.271794
 21
99.910561
 31
0.0
  0
SPLINE
  5
1d3
100
AcDbEntity
  8
Calque_2
 62
7
100
AcDbSpline
 70
0
 71
3
 72
13
 73
9
 74
7
 40
0.000000
 40
0.000000
 40
0.000000
 40
0.000000
 40
0.213092
 40
0.424421
 40
0.637513
 40
0.850605
 40
1.061934
 40
1.275026
 40
1.275026
 40
1.275026
 40
1.275026
 10
132.575740
 20
10.063018
 30
0.0
 10
132.570313
 20
9.991780
 30
0.0
 10
132.559505
 20
9.849893
 30
0.0
 10
132.474093
 20
9.651399
 30
0.0
 10
132.344147
 20
9.480583
 30
0.0
 10
132.173331
 20
9.350637
 30
0.0
 10
131.974837
 20
9.265225
 30
0.0
 10
131.832950
 20
9.254417
 30
0.0
 10
131.761712
 20
9.248990
 30
0.0
 11
132.575740
 21
10.063018
 31
0.0
 11
132.547851
 21
9.851759
 31
0.0
 11
132.466979
 21
9.656517
 31
0.0
 11
132.337317
 21
9.487413
 31
0.0
 11
132.168213
 21
9.357751
 31
0.0
 11
131.972971
 21
9.276879
 31
0.0
 11
131.761712
 21
9.248990
 31
0.0
  0
LINE
  5
1d4
100
AcDbEntity
  8
Calque_2
 62
7
100
AcDbLine
 10
159.342635
 20
100.132612
 30
0.0
 11
156.958311
 21
102.516937
 31
0.0
  0
SPLINE
  5
1d5
100
AcDbEntity
  8
Calque_2
 62
7
100
AcDbSpline
 70
0
 71
3
 72
13
 73
9
 74
7
 40
0.000000
 40
0.000000
 40
0.000000
 40
0.000000
 40
0.132725
 40
0.277369
 40
0.443504
 40
0.630424
 40
0.831886
 40
1.043838
 40
1.043838
 40
1.043838
 40
1.043838
 10
160.271794
 20
99.910561
 30
0.0
 10
160.236177
 20
99.883278
 30
0.0
 10
160.161746
 20
99.826262
 30
0.0
 10
160.010423
 20
99.803628
 30
0.0
 10
159.844881
 20
99.823972
 30
0.0
 10
159.670432
 20
99.889404
 30
0.0
 10
159.496957
 20
99.991756
 30
0.0
 10
159.394939
 20
100.084873
 30
0.0
 10
159.342635
 20
100.132612
 30
0.0
 11
160.271794
 21
99.910561
 31
0.0
 11
160.160318
 21
99.838526
 31
0.0
 11
160.018334
 21
99.810913
 31
0.0
 11
159.853203
 21
99.829152
 31
0.0
 11
159.677313
 21
99.892410
 31
0.0
 11
159.504131
 21
99.995342
 31
0.0
 11
159.342635
 21
100.132612
 31
0.0
  0
LINE
  5
1d6
100
AcDbEntity
  8
Calque_2
 62
7
100
AcDbLine
 10
156.736260
 20
103.446095
 30
0.0
 11
156.736260
 21
103.446095
 31
0.0
  0
LINE
  5
1d7
100
AcDbEntity
  8
Calque_2
 62
7
100
AcDbLine
 10
157.665418
 20
103.224043
 30
0.0
 11
160.049742
 21
100.839719
 31
0.0
  0
SPLINE
  5
1d8
100
AcDbEntity
  8
Calque_2
 62
7
100
AcDbSpline
 70
0
 71
3
 72
19
 73
15
 74
13
 40
0.000000
 40
0.000000
 40
0.000000
 40
0.000000
 40
0.211953
 40
0.413415
 40
0.600334
 40
0.766469
 40
0.911114
 40
1.043838
 40
1.176563
 40
1.321207
 40
1.487343
 40
1.674262
 40
1.875724
 40
2.087677
 40
2.087677
 40
2.087677
 40
2.087677
 10
156.958311
 20
102.516937
 30
0.0
 10
156.910578
 20
102.569234
 30
0.0
 10
156.817473
 20
102.671241
 30
0.0
 10
156.715036
 20
102.844799
 30
0.0
 10
156.649889
 20
103.018964
 30
0.0
 10
156.628649
 20
103.185403
 30
0.0
 10
156.654064
 20
103.333944
 30
0.0
 10
156.729092
 20
103.453262
 30
0.0
 10
156.848411
 20
103.528290
 30
0.0
 10
156.996951
 20
103.553706
 30
0.0
 10
157.163391
 20
103.532465
 30
0.0
 10
157.337555
 20
103.467318
 30
0.0
 10
157.511114
 20
103.364881
 30
0.0
 10
157.613120
 20
103.271777
 30
0.0
 10
157.665418
 20
103.224043
 30
0.0
 11
156.958311
 21
102.516937
 31
0.0
 11
156.821041
 21
102.678432
 31
0.0
 11
156.718109
 21
102.851614
 31
0.0
 11
156.654850
 21
103.027504
 31
0.0
 11
156.636611
 21
103.192635
 31
0.0
 11
156.664225
 21
103.334619
 31
0.0
 11
156.736260
 21
103.446095
 31
0.0
 11
156.847735
 21
103.518130
 31
0.0
 11
156.989719
 21
103.545743
 31
0.0
 11
157.154850
 21
103.527504
 31
0.0
 11
157.330740
 21
103.464246
 31
0.0
 11
157.503922
 21
103.361313
 31
0.0
 11
157.665418
 21
103.224043
 31
0.0
  0
LINE
  5
1d9
100
AcDbEntity
  8
Calque_2
 62
7
100
AcDbLine
 10
160.271794
 20
99.910561
 30
0.0
 11
160.271794
 21
99.910561
 31
0.0
  0
LINE
  5
1da
100
AcDbEntity
  8
Calque_2
 62
7
100
AcDbLine
 10
179.139953
 20
81.305384
 30
0.0
 11
178.876949
 21
81.042380
 31
0.0
  0
SPLINE
  5
1db
100
AcDbEntity
  8
Calque_2
 62
7
100
AcDbSpline
 70
0
 71
3
 72
13
 73
9
 74
7
 40
0.000000
 40
0.000000
 40
0.000000
 40
0.000000
 40
0.211953
 40
0.413415
 40
0.600334
 40
0.766469
 40
0.911114
 40
1.043838
 40
1.043838
 40
1.043838
 40
1.043838
 10
160.049742
 20
100.839719
 30
0.0
 10
160.097482
 20
100.787415
 30
0.0
 10
160.190598
 20
100.685397
 30
0.0
 10
160.292951
 20
100.511923
 30
0.0
 10
160.358382
 20
100.337473
 30
0.0
 10
160.378726
 20
100.171931
 30
0.0
 10
160.356093
 20
100.020609
 30
0.0
 10
160.299076
 20
99.946177
 30
0.0
 10
160.271794
 20
99.910561
 30
0.0
 11
160.049742
 21
100.839719
 31
0.0
 11
160.187012
 21
100.678223
 31
0.0
 11
160.289944
 21
100.505041
 31
0.0
 11
160.353203
 21
100.329152
 31
0.0
 11
160.371442
 21
100.164021
 31
0.0
 11
160.343828
 21
100.022037
 31
0.0
 11
160.271794
 21
99.910561
 31
0.0
  0
LINE
  5
1dc
100
AcDbEntity
  8
Calque_2
 62
7
100
AcDbLine
 10
177.725739
 20
81.042380
 30
0.0
 11
175.341415
 21
83.426704
 31
0.0
  0
SPLINE
  5
1dd
100
AcDbEntity
  8
Calque_2
 62
7
100
AcDbSpline
 70
0
 71
3
 72
13
 73
9
 74
7
 40
0.000000
 40
0.000000
 40
0.000000
 40
0.000000
 40
0.213092
 40
0.424421
 40
0.637513
 40
0.850605
 40
1.061934
 40
1.275026
 40
1.275026
 40
1.275026
 40
1.275026
 10
178.876949
 20
81.042380
 30
0.0
 10
178.822739
 20
80.995844
 30
0.0
 10
178.714767
 20
80.903158
 30
0.0
 10
178.514015
 20
80.823197
 30
0.0
 10
178.301344
 20
80.794297
 30
0.0
 10
178.088673
 20
80.823197
 30
0.0
 10
177.887921
 20
80.903158
 30
0.0
 10
177.779949
 20
80.995844
 30
0.0
 10
177.725739
 20
81.042380
 30
0.0
 11
178.876949
 21
81.042380
 31
0.0
 11
178.707845
 21
80.912718
 31
0.0
 11
178.512603
 21
80.831846
 31
0.0
 11
178.301344
 21
80.803957
 31
0.0
 11
178.090085
 21
80.831846
 31
0.0
 11
177.894842
 21
80.912718
 31
0.0
 11
177.725739
 21
81.042380
 31
0.0
  0
LINE
  5
1de
100
AcDbEntity
  8
Calque_2
 62
7
100
AcDbLine
 10
175.341415
 20
84.577914
 30
0.0
 11
175.604419
 21
84.840918
 31
0.0
  0
SPLINE
  5
1df
100
AcDbEntity
  8
Calque_2
 62
7
100
AcDbSpline
 70
0
 71
3
 72
13
 73
9
 74
7
 40
0.000000
 40
0.000000
 40
0.000000
 40
0.000000
 40
0.213092
 40
0.424421
 40
0.637513
 40
0.850605
 40
1.061934
 40
1.275026
 40
1.275026
 40
1.275026
 40
1.275026
 10
175.341415
 20
83.426704
 30
0.0
 10
175.294879
 20
83.480915
 30
0.0
 10
175.202192
 20
83.588886
 30
0.0
 10
175.122232
 20
83.789638
 30
0.0
 10
175.093332
 20
84.002309
 30
0.0
 10
175.122232
 20
84.214981
 30
0.0
 10
175.202192
 20
84.415732
 30
0.0
 10
175.294879
 20
84.523704
 30
0.0
 10
175.341415
 20
84.577914
 30
0.0
 11
175.341415
 21
83.426704
 31
0.0
 11
175.211753
 21
83.595808
 31
0.0
 11
175.130881
 21
83.791050
 31
0.0
 11
175.102992
 21
84.002309
 31
0.0
 11
175.130881
 21
84.213568
 31
0.0
 11
175.211753
 21
84.408811
 31
0.0
 11
175.341415
 21
84.577914
 31
0.0
  0
LINE
  5
1e0
100
AcDbEntity
  8
Calque_2
 62
7
100
AcDbLine
 10
176.755628
 20
84.840918
 30
0.0
 11
179.139953
 21
82.456594
 31
0.0
  0
SPLINE
  5
1e1
100
AcDbEntity
  8
Calque_2
 62
7
100
AcDbSpline
 70
0
 71
3
 72
10
 73
6
 74
4
 40
0.000000
 40
0.000000
 40
0.000000
 40
0.000000
 40
0.425622
 40
0.838620
 40
1.264242
 40
1.264242
 40
1.264242
 40
1.264242
 10
175.604419
 20
84.840918
 30
0.0
 10
175.721112
 20
84.925947
 30
0.0
 10
175.951037
 20
85.093482
 30
0.0
 10
176.409011
 20
85.093482
 30
0.0
 10
176.638935
 20
84.925947
 30
0.0
 10
176.755628
 20
84.840918
 30
0.0
 11
175.604419
 21
84.840918
 31
0.0
 11
175.973524
 21
85.052850
 31
0.0
 11
176.386523
 21
85.052850
 31
0.0
 11
176.755628
 21
84.840918
 31
0.0
  0
LINE
  5
1e2
100
AcDbEntity
  8
Calque_2
 62
7
100
AcDbLine
 10
179.139953
 20
81.305384
 30
0.0
 11
179.139953
 21
81.305384
 31
0.0
  0
LINE
  5
1e3
100
AcDbEntity
  8
Calque_2
 62
7
100
AcDbLine
 10
197.594952
 20
63.557492
 30
0.0
 11
196.624841
 21
62.587381
 31
0.0
  0
SPLINE
  5
1e4
100
AcDbEntity
  8
Calque_2
 62
7
100
AcDbSpline
 70
0
 71
3
 72
13
 73
9
 74
7
 40
0.000000
 40
0.000000
 40
0.000000
 40
0.000000
 40
0.213092
 40
0.424421
 40
0.637513
 40
0.850605
 40
1.061934
 40
1.275026
 40
1.275026
 40
1.275026
 40
1.275026
 10
179.139953
 20
82.456594
 30
0.0
 10
179.186489
 20
82.402384
 30
0.0
 10
179.279175
 20
82.294412
 30
0.0
 10
179.359136
 20
82.093660
 30
0.0
 10
179.388036
 20
81.880989
 30
0.0
 10
179.359136
 20
81.668318
 30
0.0
 10
179.279175
 20
81.467566
 30
0.0
 10
179.186489
 20
81.359594
 30
0.0
 10
179.139953
 20
81.305384
 30
0.0
 11
179.139953
 21
82.456594
 31
0.0
 11
179.269615
 21
82.287490
 31
0.0
 11
179.350487
 21
82.092248
 31
0.0
 11
179.378376
 21
81.880989
 31
0.0
 11
179.350487
 21
81.669730
 31
0.0
 11
179.269615
 21
81.474487
 31
0.0
 11
179.139953
 21
81.305384
 31
0.0
  0
LINE
  5
1e5
100
AcDbEntity
  8
Calque_2
 62
7
100
AcDbLine
 10
195.473631
 20
62.587381
 30
0.0
 11
193.089307
 21
64.971705
 31
0.0
  0
SPLINE
  5
1e6
100
AcDbEntity
  8
Calque_2
 62
7
100
AcDbSpline
 70
0
 71
3
 72
13
 73
9
 74
7
 40
0.000000
 40
0.000000
 40
0.000000
 40
0.000000
 40
0.213092
 40
0.424421
 40
0.637513
 40
0.850605
 40
1.061934
 40
1.275026
 40
1.275026
 40
1.275026
 40
1.275026
 10
196.624841
 20
62.587381
 30
0.0
 10
196.570631
 20
62.540845
 30
0.0
 10
196.462659
 20
62.448158
 30
0.0
 10
196.261908
 20
62.368198
 30
0.0
 10
196.049236
 20
62.339298
 30
0.0
 10
195.836565
 20
62.368198
 30
0.0
 10
195.635813
 20
62.448158
 30
0.0
 10
195.527842
 20
62.540845
 30
0.0
 10
195.473631
 20
62.587381
 30
0.0
 11
196.624841
 21
62.587381
 31
0.0
 11
196.455738
 21
62.457719
 31
0.0
 11
196.260495
 21
62.376847
 31
0.0
 11
196.049236
 21
62.348958
 31
0.0
 11
195.837977
 21
62.376847
 31
0.0
 11
195.642735
 21
62.457719
 31
0.0
 11
195.473631
 21
62.587381
 31
0.0
  0
LINE
  5
1e7
100
AcDbEntity
  8
Calque_2
 62
7
100
AcDbLine
 10
193.089307
 20
66.122915
 30
0.0
 11
194.059418
 21
67.093026
 31
0.0
  0
SPLINE
  5
1e8
100
AcDbEntity
  8
Calque_2
 62
7
100
AcDbSpline
 70
0
 71
3
 72
13
 73
9
 74
7
 40
0.000000
 40
0.000000
 40
0.000000
 40
0.000000
 40
0.213092
 40
0.424421
 40
0.637513
 40
0.850605
 40
1.061934
 40
1.275026
 40
1.275026
 40
1.275026
 40
1.275026
 10
193.089307
 20
64.971705
 30
0.0
 10
193.042771
 20
65.025916
 30
0.0
 10
192.950085
 20
65.133887
 30
0.0
 10
192.870124
 20
65.334639
 30
0.0
 10
192.841224
 20
65.547310
 30
0.0
 10
192.870124
 20
65.759982
 30
0.0
 10
192.950085
 20
65.960733
 30
0.0
 10
193.042771
 20
66.068705
 30
0.0
 10
193.089307
 20
66.122915
 30
0.0
 11
193.089307
 21
64.971705
 31
0.0
 11
192.959645
 21
65.140809
 31
0.0
 11
192.878773
 21
65.336051
 31
0.0
 11
192.850884
 21
65.547310
 31
0.0
 11
192.878773
 21
65.758569
 31
0.0
 11
192.959645
 21
65.953812
 31
0.0
 11
193.089307
 21
66.122915
 31
0.0
  0
LINE
  5
1e9
100
AcDbEntity
  8
Calque_2
 62
7
100
AcDbLine
 10
195.210628
 20
67.093026
 30
0.0
 11
197.594952
 21
64.708701
 31
0.0
  0
SPLINE
  5
1ea
100
AcDbEntity
  8
Calque_2
 62
7
100
AcDbSpline
 70
0
 71
3
 72
13
 73
9
 74
7
 40
0.000000
 40
0.000000
 40
0.000000
 40
0.000000
 40
0.213092
 40
0.424421
 40
0.637513
 40
0.850605
 40
1.061934
 40
1.275026
 40
1.275026
 40
1.275026
 40
1.275026
 10
194.059418
 20
67.093026
 30
0.0
 10
194.113628
 20
67.139562
 30
0.0
 10
194.221600
 20
67.232248
 30
0.0
 10
194.422351
 20
67.312209
 30
0.0
 10
194.635023
 20
67.341109
 30
0.0
 10
194.847694
 20
67.312209
 30
0.0
 10
195.048446
 20
67.232248
 30
0.0
 10
195.156417
 20
67.139562
 30
0.0
 10
195.210628
 20
67.093026
 30
0.0
 11
194.059418
 21
67.093026
 31
0.0
 11
194.228521
 21
67.222688
 31
0.0
 11
194.423763
 21
67.303560
 31
0.0
 11
194.635023
 21
67.331449
 31
0.0
 11
194.846282
 21
67.303560
 31
0.0
 11
195.041524
 21
67.222688
 31
0.0
 11
195.210628
 21
67.093026
 31
0.0
  0
LINE
  5
1eb
100
AcDbEntity
  8
Calque_2
 62
7
100
AcDbLine
 10
197.594952
 20
63.557492
 30
0.0
 11
197.594952
 21
63.557492
 31
0.0
  0
LINE
  5
1ec
100
AcDbEntity
  8
Calque_2
 62
7
100
AcDbLine
 10
216.506388
 20
45.353162
 30
0.0
 11
214.829171
 21
43.675944
 31
0.0
  0
SPLINE
  5
1ed
100
AcDbEntity
  8
Calque_2
 62
7
100
AcDbSpline
 70
0
 71
3
 72
13
 73
9
 74
7
 40
0.000000
 40
0.000000
 40
0.000000
 40
0.000000
 40
0.213092
 40
0.424421
 40
0.637513
 40
0.850605
 40
1.061934
 40
1.275026
 40
1.275026
 40
1.275026
 40
1.275026
 10
197.594952
 20
64.708701
 30
0.0
 10
197.641488
 20
64.654491
 30
0.0
 10
197.734174
 20
64.546520
 30
0.0
 10
197.814135
 20
64.345768
 30
0.0
 10
197.843035
 20
64.133097
 30
0.0
 10
197.814135
 20
63.920425
 30
0.0
 10
197.734174
 20
63.719674
 30
0.0
 10
197.641488
 20
63.611702
 30
0.0
 10
197.594952
 20
63.557492
 30
0.0
 11
197.594952
 21
64.708701
 31
0.0
 11
197.724614
 21
64.539598
 31
0.0
 11
197.805486
 21
64.344356
 31
0.0
 11
197.833375
 21
64.133097
 31
0.0
 11
197.805486
 21
63.921837
 31
0.0
 11
197.724614
 21
63.726595
 31
0.0
 11
197.594952
 21
63.557492
 31
0.0
  0
LINE
  5
1ee
100
AcDbEntity
  8
Calque_2
 62
7
100
AcDbLine
 10
213.677961
 20
43.675944
 30
0.0
 11
211.293637
 21
46.060269
 31
0.0
  0
SPLINE
  5
1ef
100
AcDbEntity
  8
Calque_2
 62
7
100
AcDbSpline
 70
0
 71
3
 72
10
 73
6
 74
4
 40
0.000000
 40
0.000000
 40
0.000000
 40
0.000000
 40
0.425622
 40
0.838620
 40
1.264242
 40
1.264242
 40
1.264242
 40
1.264242
 10
214.829171
 20
43.675944
 30
0.0
 10
214.712478
 20
43.590916
 30
0.0
 10
214.482553
 20
43.423380
 30
0.0
 10
214.024579
 20
43.423380
 30
0.0
 10
213.794654
 20
43.590916
 30
0.0
 10
213.677961
 20
43.675944
 30
0.0
 11
214.829171
 21
43.675944
 31
0.0
 11
214.460065
 21
43.464013
 31
0.0
 11
214.047067
 21
43.464013
 31
0.0
 11
213.677961
 21
43.675944
 31
0.0
  0
LINE
  5
1f0
100
AcDbEntity
  8
Calque_2
 62
7
100
AcDbLine
 10
211.293637
 20
47.211478
 30
0.0
 11
212.970854
 21
48.888696
 31
0.0
  0
SPLINE
  5
1f1
100
AcDbEntity
  8
Calque_2
 62
7
100
AcDbSpline
 70
0
 71
3
 72
10
 73
6
 74
4
 40
0.000000
 40
0.000000
 40
0.000000
 40
0.000000
 40
0.425622
 40
0.838620
 40
1.264242
 40
1.264242
 40
1.264242
 40
1.264242
 10
211.293637
 20
46.060269
 30
0.0
 10
211.208608
 20
46.176962
 30
0.0
 10
211.041073
 20
46.406887
 30
0.0
 10
211.041073
 20
46.864861
 30
0.0
 10
211.208608
 20
47.094785
 30
0.0
 10
211.293637
 20
47.211478
 30
0.0
 11
211.293637
 21
46.060269
 31
0.0
 11
211.081705
 21
46.429374
 31
0.0
 11
211.081705
 21
46.842373
 31
0.0
 11
211.293637
 21
47.211478
 31
0.0
  0
LINE
  5
1f2
100
AcDbEntity
  8
Calque_2
 62
7
100
AcDbLine
 10
214.122064
 20
48.888696
 30
0.0
 11
216.506388
 21
46.504372
 31
0.0
  0
SPLINE
  5
1f3
100
AcDbEntity
  8
Calque_2
 62
7
100
AcDbSpline
 70
0
 71
3
 72
13
 73
9
 74
7
 40
0.000000
 40
0.000000
 40
0.000000
 40
0.000000
 40
0.213092
 40
0.424421
 40
0.637513
 40
0.850605
 40
1.061934
 40
1.275026
 40
1.275026
 40
1.275026
 40
1.275026
 10
212.970854
 20
48.888696
 30
0.0
 10
213.025064
 20
48.935232
 30
0.0
 10
213.133036
 20
49.027919
 30
0.0
 10
213.333788
 20
49.107879
 30
0.0
 10
213.546459
 20
49.136779
 30
0.0
 10
213.759130
 20
49.107879
 30
0.0
 10
213.959882
 20
49.027919
 30
0.0
 10
214.067854
 20
48.935232
 30
0.0
 10
214.122064
 20
48.888696
 30
0.0
 11
212.970854
 21
48.888696
 31
0.0
 11
213.139958
 21
49.018358
 31
0.0
 11
213.335200
 21
49.099230
 31
0.0
 11
213.546459
 21
49.127119
 31
0.0
 11
213.757718
 21
49.099230
 31
0.0
 11
213.952961
 21
49.018358
 31
0.0
 11
214.122064
 21
48.888696
 31
0.0
  0
LINE
  5
1f4
100
AcDbEntity
  8
Calque_2
 62
7
100
AcDbLine
 10
216.506388
 20
45.353162
 30
0.0
 11
216.506388
 21
45.353162
 31
0.0
  0
LINE
  5
1f5
100
AcDbEntity
  8
Calque_2
 62
7
100
AcDbLine
 10
160.238845
 20
159.316273
 30
0.0
 11
160.238845
 21
159.316273
 31
0.0
  0
SPLINE
  5
1f6
100
AcDbEntity
  8
Calque_2
 62
7
100
AcDbSpline
 70
0
 71
3
 72
13
 73
9
 74
7
 40
0.000000
 40
0.000000
 40
0.000000
 40
0.000000
 40
0.213092
 40
0.424421
 40
0.637513
 40
0.850605
 40
1.061934
 40
1.275026
 40
1.275026
 40
1.275026
 40
1.275026
 10
216.506388
 20
46.504372
 30
0.0
 10
216.552924
 20
46.450161
 30
0.0
 10
216.645611
 20
46.342190
 30
0.0
 10
216.725572
 20
46.141438
 30
0.0
 10
216.754471
 20
45.928767
 30
0.0
 10
216.725572
 20
45.716095
 30
0.0
 10
216.645611
 20
45.515344
 30
0.0
 10
216.552924
 20
45.407372
 30
0.0
 10
216.506388
 20
45.353162
 30
0.0
 11
216.506388
 21
46.504372
 31
0.0
 11
216.636051
 21
46.335268
 31
0.0
 11
216.716923
 21
46.140026
 31
0.0
 11
216.744812
 21
45.928767
 31
0.0
 11
216.716923
 21
45.717508
 31
0.0
 11
216.636051
 21
45.522265
 31
0.0
 11
216.506388
 21
45.353162
 31
0.0
  0
LINE
  5
1f7
100
AcDbEntity
  8
Calque_2
 62
7
100
AcDbLine
 10
160.016794
 20
158.387115
 30
0.0
 11
157.632469
 21
156.002791
 31
0.0
  0
SPLINE
  5
1f8
100
AcDbEntity
  8
Calque_2
 62
7
100
AcDbSpline
 70
0
 71
3
 72
13
 73
9
 74
7
 40
0.000000
 40
0.000000
 40
0.000000
 40
0.000000
 40
0.132725
 40
0.277369
 40
0.443504
 40
0.630424
 40
0.831886
 40
1.043838
 40
1.043838
 40
1.043838
 40
1.043838
 10
160.238845
 20
159.316273
 30
0.0
 10
160.266128
 20
159.280657
 30
0.0
 10
160.323144
 20
159.206226
 30
0.0
 10
160.345778
 20
159.054903
 30
0.0
 10
160.325434
 20
158.889361
 30
0.0
 10
160.260002
 20
158.714911
 30
0.0
 10
160.157650
 20
158.541437
 30
0.0
 10
160.064533
 20
158.439419
 30
0.0
 10
160.016794
 20
158.387115
 30
0.0
 11
160.238845
 21
159.316273
 31
0.0
 11
160.310880
 21
159.204797
 31
0.0
 11
160.338494
 21
159.062813
 31
0.0
 11
160.320254
 21
158.897682
 31
0.0
 11
160.256996
 21
158.721793
 31
0.0
 11
160.154064
 21
158.548611
 31
0.0
 11
160.016794
 21
158.387115
 31
0.0
  0
LINE
  5
1f9
100
AcDbEntity
  8
Calque_2
 62
7
100
AcDbLine
 10
156.703311
 20
155.780739
 30
0.0
 11
156.703311
 21
155.780739
 31
0.0
  0
LINE
  5
1fa
100
AcDbEntity
  8
Calque_2
 62
7
100
AcDbLine
 10
156.925363
 20
156.709897
 30
0.0
 11
159.309687
 21
159.094222
 31
0.0
  0
SPLINE
  5
1fb
100
AcDbEntity
  8
Calque_2
 62
7
100
AcDbSpline
 70
0
 71
3
 72
19
 73
15
 74
13
 40
0.000000
 40
0.000000
 40
0.000000
 40
0.000000
 40
0.211953
 40
0.413415
 40
0.600334
 40
0.766469
 40
0.911114
 40
1.043838
 40
1.176563
 40
1.321207
 40
1.487343
 40
1.674262
 40
1.875724
 40
2.087677
 40
2.087677
 40
2.087677
 40
2.087677
 10
157.632469
 20
156.002791
 30
0.0
 10
157.580172
 20
155.955057
 30
0.0
 10
157.478165
 20
155.861953
 30
0.0
 10
157.304607
 20
155.759516
 30
0.0
 10
157.130442
 20
155.694369
 30
0.0
 10
156.964003
 20
155.673128
 30
0.0
 10
156.815462
 20
155.698544
 30
0.0
 10
156.696144
 20
155.773572
 30
0.0
 10
156.621116
 20
155.892890
 30
0.0
 10
156.595700
 20
156.041431
 30
0.0
 10
156.616941
 20
156.207870
 30
0.0
 10
156.682088
 20
156.382035
 30
0.0
 10
156.784525
 20
156.555593
 30
0.0
 10
156.877629
 20
156.657600
 30
0.0
 10
156.925363
 20
156.709897
 30
0.0
 11
157.632469
 21
156.002791
 31
0.0
 11
157.470974
 21
155.865521
 31
0.0
 11
157.297792
 21
155.762588
 31
0.0
 11
157.121902
 21
155.699330
 31
0.0
 11
156.956771
 21
155.681091
 31
0.0
 11
156.814787
 21
155.708704
 31
0.0
 11
156.703311
 21
155.780739
 31
0.0
 11
156.631276
 21
155.892215
 31
0.0
 11
156.603663
 21
156.034199
 31
0.0
 11
156.621902
 21
156.199330
 31
0.0
 11
156.685160
 21
156.375220
 31
0.0
 11
156.788093
 21
156.548402
 31
0.0
 11
156.925363
 21
156.709897
 31
0.0
  0
LINE
  5
1fc
100
AcDbEntity
  8
Calque_2
 62
7
100
AcDbLine
 10
160.238845
 20
159.316273
 30
0.0
 11
160.238845
 21
159.316273
 31
0.0
  0
LINE
  5
1fd
100
AcDbEntity
  8
Calque_2
 62
7
100
AcDbLine
 10
178.844028
 20
178.184432
 30
0.0
 11
179.107032
 21
177.921428
 31
0.0
  0
SPLINE
  5
1fe
100
AcDbEntity
  8
Calque_2
 62
7
100
AcDbSpline
 70
0
 71
3
 72
13
 73
9
 74
7
 40
0.000000
 40
0.000000
 40
0.000000
 40
0.000000
 40
0.211953
 40
0.413415
 40
0.600334
 40
0.766469
 40
0.911114
 40
1.043838
 40
1.043838
 40
1.043838
 40
1.043838
 10
159.309687
 20
159.094222
 30
0.0
 10
159.361991
 20
159.141961
 30
0.0
 10
159.464009
 20
159.235078
 30
0.0
 10
159.637483
 20
159.337430
 30
0.0
 10
159.811933
 20
159.402862
 30
0.0
 10
159.977475
 20
159.423206
 30
0.0
 10
160.128798
 20
159.400572
 30
0.0
 10
160.203229
 20
159.343556
 30
0.0
 10
160.238845
 20
159.316273
 30
0.0
 11
159.309687
 21
159.094222
 31
0.0
 11
159.471183
 21
159.231492
 31
0.0
 11
159.644365
 21
159.334424
 31
0.0
 11
159.820254
 21
159.397682
 31
0.0
 11
159.985385
 21
159.415922
 31
0.0
 11
160.127369
 21
159.388308
 31
0.0
 11
160.238845
 21
159.316273
 31
0.0
  0
LINE
  5
1ff
100
AcDbEntity
  8
Calque_2
 62
7
100
AcDbLine
 10
179.107032
 20
176.770218
 30
0.0
 11
176.722708
 21
174.385894
 31
0.0
  0
SPLINE
  5
200
100
AcDbEntity
  8
Calque_2
 62
7
100
AcDbSpline
 70
0
 71
3
 72
13
 73
9
 74
7
 40
0.000000
 40
0.000000
 40
0.000000
 40
0.000000
 40
0.213092
 40
0.424421
 40
0.637513
 40
0.850605
 40
1.061934
 40
1.275026
 40
1.275026
 40
1.275026
 40
1.275026
 10
179.107032
 20
177.921428
 30
0.0
 10
179.153568
 20
177.867218
 30
0.0
 10
179.246255
 20
177.759246
 30
0.0
 10
179.326215
 20
177.558494
 30
0.0
 10
179.355115
 20
177.345823
 30
0.0
 10
179.326215
 20
177.133152
 30
0.0
 10
179.246255
 20
176.932400
 30
0.0
 10
179.153568
 20
176.824428
 30
0.0
 10
179.107032
 20
176.770218
 30
0.0
 11
179.107032
 21
177.921428
 31
0.0
 11
179.236694
 21
177.752325
 31
0.0
 11
179.317566
 21
177.557082
 31
0.0
 11
179.345455
 21
177.345823
 31
0.0
 11
179.317566
 21
177.134564
 31
0.0
 11
179.236694
 21
176.939322
 31
0.0
 11
179.107032
 21
176.770218
 31
0.0
  0
LINE
  5
201
100
AcDbEntity
  8
Calque_2
 62
7
100
AcDbLine
 10
175.571498
 20
174.385894
 30
0.0
 11
175.308494
 21
174.648898
 31
0.0
  0
SPLINE
  5
202
100
AcDbEntity
  8
Calque_2
 62
7
100
AcDbSpline
 70
0
 71
3
 72
13
 73
9
 74
7
 40
0.000000
 40
0.000000
 40
0.000000
 40
0.000000
 40
0.213092
 40
0.424421
 40
0.637513
 40
0.850605
 40
1.061934
 40
1.275026
 40
1.275026
 40
1.275026
 40
1.275026
 10
176.722708
 20
174.385894
 30
0.0
 10
176.668498
 20
174.339358
 30
0.0
 10
176.560526
 20
174.246671
 30
0.0
 10
176.359774
 20
174.166711
 30
0.0
 10
176.147103
 20
174.137811
 30
0.0
 10
175.934432
 20
174.166711
 30
0.0
 10
175.733680
 20
174.246671
 30
0.0
 10
175.625708
 20
174.339358
 30
0.0
 10
175.571498
 20
174.385894
 30
0.0
 11
176.722708
 21
174.385894
 31
0.0
 11
176.553604
 21
174.256232
 31
0.0
 11
176.358362
 21
174.175360
 31
0.0
 11
176.147103
 21
174.147471
 31
0.0
 11
175.935844
 21
174.175360
 31
0.0
 11
175.740602
 21
174.256232
 31
0.0
 11
175.571498
 21
174.385894
 31
0.0
  0
LINE
  5
203
100
AcDbEntity
  8
Calque_2
 62
7
100
AcDbLine
 10
175.308494
 20
175.800108
 30
0.0
 11
177.692819
 21
178.184432
 31
0.0
  0
SPLINE
  5
204
100
AcDbEntity
  8
Calque_2
 62
7
100
AcDbSpline
 70
0
 71
3
 72
13
 73
9
 74
7
 40
0.000000
 40
0.000000
 40
0.000000
 40
0.000000
 40
0.213092
 40
0.424421
 40
0.637513
 40
0.850605
 40
1.061934
 40
1.275026
 40
1.275026
 40
1.275026
 40
1.275026
 10
175.308494
 20
174.648898
 30
0.0
 10
175.261958
 20
174.703108
 30
0.0
 10
175.169272
 20
174.811080
 30
0.0
 10
175.089311
 20
175.011831
 30
0.0
 10
175.060411
 20
175.224503
 30
0.0
 10
175.089311
 20
175.437174
 30
0.0
 10
175.169272
 20
175.637926
 30
0.0
 10
175.261958
 20
175.745897
 30
0.0
 10
175.308494
 20
175.800108
 30
0.0
 11
175.308494
 21
174.648898
 31
0.0
 11
175.178832
 21
174.818001
 31
0.0
 11
175.097960
 21
175.013244
 31
0.0
 11
175.070071
 21
175.224503
 31
0.0
 11
175.097960
 21
175.435762
 31
0.0
 11
175.178832
 21
175.631004
 31
0.0
 11
175.308494
 21
175.800108
 31
0.0
  0
LINE
  5
205
100
AcDbEntity
  8
Calque_2
 62
7
100
AcDbLine
 10
178.844028
 20
178.184432
 30
0.0
 11
178.844028
 21
178.184432
 31
0.0
  0
LINE
  5
206
100
AcDbEntity
  8
Calque_2
 62
7
100
AcDbLine
 10
196.591906
 20
196.639416
 30
0.0
 11
197.562016
 21
195.669305
 31
0.0
  0
SPLINE
  5
207
100
AcDbEntity
  8
Calque_2
 62
7
100
AcDbSpline
 70
0
 71
3
 72
13
 73
9
 74
7
 40
0.000000
 40
0.000000
 40
0.000000
 40
0.000000
 40
0.213092
 40
0.424421
 40
0.637513
 40
0.850605
 40
1.061934
 40
1.275026
 40
1.275026
 40
1.275026
 40
1.275026
 10
177.692819
 20
178.184432
 30
0.0
 10
177.747029
 20
178.230968
 30
0.0
 10
177.855000
 20
178.323654
 30
0.0
 10
178.055752
 20
178.403615
 30
0.0
 10
178.268423
 20
178.432515
 30
0.0
 10
178.481095
 20
178.403615
 30
0.0
 10
178.681846
 20
178.323654
 30
0.0
 10
178.789818
 20
178.230968
 30
0.0
 10
178.844028
 20
178.184432
 30
0.0
 11
177.692819
 21
178.184432
 31
0.0
 11
177.861922
 21
178.314094
 31
0.0
 11
178.057164
 21
178.394966
 31
0.0
 11
178.268423
 21
178.422855
 31
0.0
 11
178.479683
 21
178.394966
 31
0.0
 11
178.674925
 21
178.314094
 31
0.0
 11
178.844028
 21
178.184432
 31
0.0
  0
LINE
  5
208
100
AcDbEntity
  8
Calque_2
 62
7
100
AcDbLine
 10
197.562016
 20
194.518096
 30
0.0
 11
195.177692
 21
192.133771
 31
0.0
  0
SPLINE
  5
209
100
AcDbEntity
  8
Calque_2
 62
7
100
AcDbSpline
 70
0
 71
3
 72
13
 73
9
 74
7
 40
0.000000
 40
0.000000
 40
0.000000
 40
0.000000
 40
0.213092
 40
0.424421
 40
0.637513
 40
0.850605
 40
1.061934
 40
1.275026
 40
1.275026
 40
1.275026
 40
1.275026
 10
197.562016
 20
195.669305
 30
0.0
 10
197.608552
 20
195.615095
 30
0.0
 10
197.701239
 20
195.507123
 30
0.0
 10
197.781200
 20
195.306372
 30
0.0
 10
197.810100
 20
195.093701
 30
0.0
 10
197.781200
 20
194.881029
 30
0.0
 10
197.701239
 20
194.680278
 30
0.0
 10
197.608552
 20
194.572306
 30
0.0
 10
197.562016
 20
194.518096
 30
0.0
 11
197.562016
 21
195.669305
 31
0.0
 11
197.691679
 21
195.500202
 31
0.0
 11
197.772551
 21
195.304960
 31
0.0
 11
197.800440
 21
195.093701
 31
0.0
 11
197.772551
 21
194.882441
 31
0.0
 11
197.691679
 21
194.687199
 31
0.0
 11
197.562016
 21
194.518096
 31
0.0
  0
LINE
  5
20a
100
AcDbEntity
  8
Calque_2
 62
7
100
AcDbLine
 10
194.026482
 20
192.133771
 30
0.0
 11
193.056372
 21
193.103882
 31
0.0
  0
SPLINE
  5
20b
100
AcDbEntity
  8
Calque_2
 62
7
100
AcDbSpline
 70
0
 71
3
 72
13
 73
9
 74
7
 40
0.000000
 40
0.000000
 40
0.000000
 40
0.000000
 40
0.213092
 40
0.424421
 40
0.637513
 40
0.850605
 40
1.061934
 40
1.275026
 40
1.275026
 40
1.275026
 40
1.275026
 10
195.177692
 20
192.133771
 30
0.0
 10
195.123482
 20
192.087236
 30
0.0
 10
195.015510
 20
191.994549
 30
0.0
 10
194.814759
 20
191.914588
 30
0.0
 10
194.602087
 20
191.885688
 30
0.0
 10
194.389416
 20
191.914588
 30
0.0
 10
194.188664
 20
191.994549
 30
0.0
 10
194.080693
 20
192.087236
 30
0.0
 10
194.026482
 20
192.133771
 30
0.0
 11
195.177692
 21
192.133771
 31
0.0
 11
195.008589
 21
192.004109
 31
0.0
 11
194.813346
 21
191.923237
 31
0.0
 11
194.602087
 21
191.895348
 31
0.0
 11
194.390828
 21
191.923237
 31
0.0
 11
194.195586
 21
192.004109
 31
0.0
 11
194.026482
 21
192.133771
 31
0.0
  0
LINE
  5
20c
100
AcDbEntity
  8
Calque_2
 62
7
100
AcDbLine
 10
193.056372
 20
194.255092
 30
0.0
 11
195.440696
 21
196.639416
 31
0.0
  0
SPLINE
  5
20d
100
AcDbEntity
  8
Calque_2
 62
7
100
AcDbSpline
 70
0
 71
3
 72
13
 73
9
 74
7
 40
0.000000
 40
0.000000
 40
0.000000
 40
0.000000
 40
0.213092
 40
0.424421
 40
0.637513
 40
0.850605
 40
1.061934
 40
1.275026
 40
1.275026
 40
1.275026
 40
1.275026
 10
193.056372
 20
193.103882
 30
0.0
 10
193.009836
 20
193.158092
 30
0.0
 10
192.917149
 20
193.266064
 30
0.0
 10
192.837188
 20
193.466816
 30
0.0
 10
192.808288
 20
193.679487
 30
0.0
 10
192.837188
 20
193.892158
 30
0.0
 10
192.917149
 20
194.092910
 30
0.0
 10
193.009836
 20
194.200882
 30
0.0
 10
193.056372
 20
194.255092
 30
0.0
 11
193.056372
 21
193.103882
 31
0.0
 11
192.926709
 21
193.272985
 31
0.0
 11
192.845837
 21
193.468228
 31
0.0
 11
192.817948
 21
193.679487
 31
0.0
 11
192.845837
 21
193.890746
 31
0.0
 11
192.926709
 21
194.085988
 31
0.0
 11
193.056372
 21
194.255092
 31
0.0
  0
LINE
  5
20e
100
AcDbEntity
  8
Calque_2
 62
7
100
AcDbLine
 10
196.591906
 20
196.639416
 30
0.0
 11
196.591906
 21
196.639416
 31
0.0
  0
LINE
  5
20f
100
AcDbEntity
  8
Calque_2
 62
7
100
AcDbLine
 10
214.796249
 20
215.550866
 30
0.0
 11
216.473466
 21
213.873649
 31
0.0
  0
SPLINE
  5
210
100
AcDbEntity
  8
Calque_2
 62
7
100
AcDbSpline
 70
0
 71
3
 72
13
 73
9
 74
7
 40
0.000000
 40
0.000000
 40
0.000000
 40
0.000000
 40
0.213092
 40
0.424421
 40
0.637513
 40
0.850605
 40
1.061934
 40
1.275026
 40
1.275026
 40
1.275026
 40
1.275026
 10
195.440696
 20
196.639416
 30
0.0
 10
195.494906
 20
196.685952
 30
0.0
 10
195.602878
 20
196.778639
 30
0.0
 10
195.803629
 20
196.858599
 30
0.0
 10
196.016301
 20
196.887499
 30
0.0
 10
196.228972
 20
196.858599
 30
0.0
 10
196.429724
 20
196.778639
 30
0.0
 10
196.537695
 20
196.685952
 30
0.0
 10
196.591906
 20
196.639416
 30
0.0
 11
195.440696
 21
196.639416
 31
0.0
 11
195.609799
 21
196.769078
 31
0.0
 11
195.805042
 21
196.849950
 31
0.0
 11
196.016301
 21
196.877839
 31
0.0
 11
196.227560
 21
196.849950
 31
0.0
 11
196.422802
 21
196.769078
 31
0.0
 11
196.591906
 21
196.639416
 31
0.0
  0
LINE
  5
211
100
AcDbEntity
  8
Calque_2
 62
7
100
AcDbLine
 10
216.473466
 20
212.722439
 30
0.0
 11
214.089142
 21
210.338115
 31
0.0
  0
SPLINE
  5
212
100
AcDbEntity
  8
Calque_2
 62
7
100
AcDbSpline
 70
0
 71
3
 72
13
 73
9
 74
7
 40
0.000000
 40
0.000000
 40
0.000000
 40
0.000000
 40
0.213092
 40
0.424421
 40
0.637513
 40
0.850605
 40
1.061934
 40
1.275026
 40
1.275026
 40
1.275026
 40
1.275026
 10
216.473466
 20
213.873649
 30
0.0
 10
216.520002
 20
213.819438
 30
0.0
 10
216.612689
 20
213.711467
 30
0.0
 10
216.692650
 20
213.510715
 30
0.0
 10
216.721550
 20
213.298044
 30
0.0
 10
216.692650
 20
213.085372
 30
0.0
 10
216.612689
 20
212.884621
 30
0.0
 10
216.520002
 20
212.776649
 30
0.0
 10
216.473466
 20
212.722439
 30
0.0
 11
216.473466
 21
213.873649
 31
0.0
 11
216.603129
 21
213.704545
 31
0.0
 11
216.684001
 21
213.509303
 31
0.0
 11
216.711890
 21
213.298044
 31
0.0
 11
216.684001
 21
213.086784
 31
0.0
 11
216.603129
 21
212.891542
 31
0.0
 11
216.473466
 21
212.722439
 31
0.0
  0
LINE
  5
213
100
AcDbEntity
  8
Calque_2
 62
7
100
AcDbLine
 10
212.937932
 20
210.338115
 30
0.0
 11
211.260715
 21
212.015332
 31
0.0
  0
SPLINE
  5
214
100
AcDbEntity
  8
Calque_2
 62
7
100
AcDbSpline
 70
0
 71
3
 72
13
 73
9
 74
7
 40
0.000000
 40
0.000000
 40
0.000000
 40
0.000000
 40
0.213092
 40
0.424421
 40
0.637513
 40
0.850605
 40
1.061934
 40
1.275026
 40
1.275026
 40
1.275026
 40
1.275026
 10
214.089142
 20
210.338115
 30
0.0
 10
214.034932
 20
210.291579
 30
0.0
 10
213.926960
 20
210.198892
 30
0.0
 10
213.726208
 20
210.118931
 30
0.0
 10
213.513537
 20
210.090031
 30
0.0
 10
213.300866
 20
210.118931
 30
0.0
 10
213.100114
 20
210.198892
 30
0.0
 10
212.992143
 20
210.291579
 30
0.0
 10
212.937932
 20
210.338115
 30
0.0
 11
214.089142
 21
210.338115
 31
0.0
 11
213.920039
 21
210.208452
 31
0.0
 11
213.724796
 21
210.127580
 31
0.0
 11
213.513537
 21
210.099691
 31
0.0
 11
213.302278
 21
210.127580
 31
0.0
 11
213.107036
 21
210.208452
 31
0.0
 11
212.937932
 21
210.338115
 31
0.0
  0
LINE
  5
215
100
AcDbEntity
  8
Calque_2
 62
7
100
AcDbLine
 10
211.260715
 20
213.166542
 30
0.0
 11
213.645039
 21
215.550866
 31
0.0
  0
SPLINE
  5
216
100
AcDbEntity
  8
Calque_2
 62
7
100
AcDbSpline
 70
0
 71
3
 72
13
 73
9
 74
7
 40
0.000000
 40
0.000000
 40
0.000000
 40
0.000000
 40
0.213092
 40
0.424421
 40
0.637513
 40
0.850605
 40
1.061934
 40
1.275026
 40
1.275026
 40
1.275026
 40
1.275026
 10
211.260715
 20
212.015332
 30
0.0
 10
211.214179
 20
212.069542
 30
0.0
 10
211.121492
 20
212.177514
 30
0.0
 10
211.041532
 20
212.378266
 30
0.0
 10
211.012632
 20
212.590937
 30
0.0
 10
211.041532
 20
212.803608
 30
0.0
 10
211.121492
 20
213.004360
 30
0.0
 10
211.214179
 20
213.112332
 30
0.0
 10
211.260715
 20
213.166542
 30
0.0
 11
211.260715
 21
212.015332
 31
0.0
 11
211.131053
 21
212.184435
 31
0.0
 11
211.050181
 21
212.379678
 31
0.0
 11
211.022292
 21
212.590937
 31
0.0
 11
211.050181
 21
212.802196
 31
0.0
 11
211.131053
 21
212.997438
 31
0.0
 11
211.260715
 21
213.166542
 31
0.0
  0
LINE
  5
217
100
AcDbEntity
  8
Calque_2
 62
7
100
AcDbLine
 10
214.796249
 20
215.550866
 30
0.0
 11
214.796249
 21
215.550866
 31
0.0
  0
LINE
  5
218
100
AcDbEntity
  8
Calque_2
 62
7
100
AcDbLine
 10
100.833152
 20
159.283310
 30
0.0
 11
100.833152
 21
159.283310
 31
0.0
  0
SPLINE
  5
219
100
AcDbEntity
  8
Calque_2
 62
7
100
AcDbSpline
 70
0
 71
3
 72
13
 73
9
 74
7
 40
0.000000
 40
0.000000
 40
0.000000
 40
0.000000
 40
0.213092
 40
0.424421
 40
0.637513
 40
0.850605
 40
1.061934
 40
1.275026
 40
1.275026
 40
1.275026
 40
1.275026
 10
213.645039
 20
215.550866
 30
0.0
 10
213.699249
 20
215.597402
 30
0.0
 10
213.807221
 20
215.690089
 30
0.0
 10
214.007973
 20
215.770049
 30
0.0
 10
214.220644
 20
215.798949
 30
0.0
 10
214.433315
 20
215.770049
 30
0.0
 10
214.634067
 20
215.690089
 30
0.0
 10
214.742039
 20
215.597402
 30
0.0
 10
214.796249
 20
215.550866
 30
0.0
 11
213.645039
 21
215.550866
 31
0.0
 11
213.814142
 21
215.680528
 31
0.0
 11
214.009385
 21
215.761400
 31
0.0
 11
214.220644
 21
215.789289
 31
0.0
 11
214.431903
 21
215.761400
 31
0.0
 11
214.627145
 21
215.680528
 31
0.0
 11
214.796249
 21
215.550866
 31
0.0
  0
LINE
  5
21a
100
AcDbEntity
  8
Calque_2
 62
7
100
AcDbLine
 10
101.762310
 20
159.061258
 30
0.0
 11
104.146634
 21
156.676934
 31
0.0
  0
SPLINE
  5
21b
100
AcDbEntity
  8
Calque_2
 62
7
100
AcDbSpline
 70
0
 71
3
 72
13
 73
9
 74
7
 40
0.000000
 40
0.000000
 40
0.000000
 40
0.000000
 40
0.132725
 40
0.277369
 40
0.443504
 40
0.630424
 40
0.831886
 40
1.043838
 40
1.043838
 40
1.043838
 40
1.043838
 10
100.833152
 20
159.283310
 30
0.0
 10
100.868768
 20
159.310593
 30
0.0
 10
100.943199
 20
159.367609
 30
0.0
 10
101.094522
 20
159.390242
 30
0.0
 10
101.260064
 20
159.369899
 30
0.0
 10
101.434513
 20
159.304467
 30
0.0
 10
101.607988
 20
159.202114
 30
0.0
 10
101.710006
 20
159.108998
 30
0.0
 10
101.762310
 20
159.061258
 30
0.0
 11
100.833152
 21
159.283310
 31
0.0
 11
100.944628
 21
159.355345
 31
0.0
 11
101.086611
 21
159.382958
 31
0.0
 11
101.251742
 21
159.364719
 31
0.0
 11
101.427632
 21
159.301461
 31
0.0
 11
101.600814
 21
159.198528
 31
0.0
 11
101.762310
 21
159.061258
 31
0.0
  0
LINE
  5
21c
100
AcDbEntity
  8
Calque_2
 62
7
100
AcDbLine
 10
104.368686
 20
155.747776
 30
0.0
 11
104.368686
 21
155.747776
 31
0.0
  0
LINE
  5
21d
100
AcDbEntity
  8
Calque_2
 62
7
100
AcDbLine
 10
103.439527
 20
155.969827
 30
0.0
 11
101.055203
 21
158.354152
 31
0.0
  0
SPLINE
  5
21e
100
AcDbEntity
  8
Calque_2
 62
7
100
AcDbSpline
 70
0
 71
3
 72
19
 73
15
 74
13
 40
0.000000
 40
0.000000
 40
0.000000
 40
0.000000
 40
0.211953
 40
0.413415
 40
0.600334
 40
0.766469
 40
0.911114
 40
1.043838
 40
1.176563
 40
1.321207
 40
1.487343
 40
1.674262
 40
1.875724
 40
2.087677
 40
2.087677
 40
2.087677
 40
2.087677
 10
104.146634
 20
156.676934
 30
0.0
 10
104.194368
 20
156.624637
 30
0.0
 10
104.287472
 20
156.522630
 30
0.0
 10
104.389909
 20
156.349071
 30
0.0
 10
104.455056
 20
156.174907
 30
0.0
 10
104.476297
 20
156.008468
 30
0.0
 10
104.450881
 20
155.859927
 30
0.0
 10
104.375853
 20
155.740609
 30
0.0
 10
104.256534
 20
155.665580
 30
0.0
 10
104.107994
 20
155.640165
 30
0.0
 10
103.941555
 20
155.661405
 30
0.0
 10
103.767390
 20
155.726552
 30
0.0
 10
103.593831
 20
155.828990
 30
0.0
 10
103.491825
 20
155.922094
 30
0.0
 10
103.439527
 20
155.969827
 30
0.0
 11
104.146634
 21
156.676934
 31
0.0
 11
104.283904
 21
156.515438
 31
0.0
 11
104.386836
 21
156.342256
 31
0.0
 11
104.450095
 21
156.166367
 31
0.0
 11
104.468334
 21
156.001236
 31
0.0
 11
104.440720
 21
155.859252
 31
0.0
 11
104.368686
 21
155.747776
 31
0.0
 11
104.257210
 21
155.675741
 31
0.0
 11
104.115226
 21
155.648127
 31
0.0
 11
103.950095
 21
155.666367
 31
0.0
 11
103.774205
 21
155.729625
 31
0.0
 11
103.601023
 21
155.832557
 31
0.0
 11
103.439527
 21
155.969827
 31
0.0
  0
LINE
  5
21f
100
AcDbEntity
  8
Calque_2
 62
7
100
AcDbLine
 10
100.833152
 20
159.283310
 30
0.0
 11
100.833152
 21
159.283310
 31
0.0
  0
LINE
  5
220
100
AcDbEntity
  8
Calque_2
 62
7
100
AcDbLine
 10
81.964985
 20
177.888494
 30
0.0
 11
82.227989
 21
178.151498
 31
0.0
  0
SPLINE
  5
221
100
AcDbEntity
  8
Calque_2
 62
7
100
AcDbSpline
 70
0
 71
3
 72
13
 73
9
 74
7
 40
0.000000
 40
0.000000
 40
0.000000
 40
0.000000
 40
0.211953
 40
0.413415
 40
0.600334
 40
0.766469
 40
0.911114
 40
1.043838
 40
1.043838
 40
1.043838
 40
1.043838
 10
101.055203
 20
158.354152
 30
0.0
 10
101.007464
 20
158.406455
 30
0.0
 10
100.914347
 20
158.508474
 30
0.0
 10
100.811994
 20
158.681948
 30
0.0
 10
100.746563
 20
158.856397
 30
0.0
 10
100.726219
 20
159.021940
 30
0.0
 10
100.748853
 20
159.173262
 30
0.0
 10
100.805869
 20
159.247693
 30
0.0
 10
100.833152
 20
159.283310
 30
0.0
 11
101.055203
 21
158.354152
 31
0.0
 11
100.917933
 21
158.515647
 31
0.0
 11
100.815001
 21
158.688829
 31
0.0
 11
100.751742
 21
158.864719
 31
0.0
 11
100.733503
 21
159.029850
 31
0.0
 11
100.761117
 21
159.171834
 31
0.0
 11
100.833152
 21
159.283310
 31
0.0
  0
LINE
  5
222
100
AcDbEntity
  8
Calque_2
 62
7
100
AcDbLine
 10
83.379199
 20
178.151498
 30
0.0
 11
85.763523
 21
175.767173
 31
0.0
  0
SPLINE
  5
223
100
AcDbEntity
  8
Calque_2
 62
7
100
AcDbSpline
 70
0
 71
3
 72
13
 73
9
 74
7
 40
0.000000
 40
0.000000
 40
0.000000
 40
0.000000
 40
0.213092
 40
0.424421
 40
0.637513
 40
0.850605
 40
1.061934
 40
1.275026
 40
1.275026
 40
1.275026
 40
1.275026
 10
82.227989
 20
178.151498
 30
0.0
 10
82.282200
 20
178.198033
 30
0.0
 10
82.390171
 20
178.290720
 30
0.0
 10
82.590923
 20
178.370681
 30
0.0
 10
82.803594
 20
178.399581
 30
0.0
 10
83.016266
 20
178.370681
 30
0.0
 10
83.217017
 20
178.290720
 30
0.0
 10
83.324989
 20
178.198033
 30
0.0
 10
83.379199
 20
178.151498
 30
0.0
 11
82.227989
 21
178.151498
 31
0.0
 11
82.397093
 21
178.281160
 31
0.0
 11
82.592335
 21
178.362032
 31
0.0
 11
82.803594
 21
178.389921
 31
0.0
 11
83.014853
 21
178.362032
 31
0.0
 11
83.210096
 21
178.281160
 31
0.0
 11
83.379199
 21
178.151498
 31
0.0
  0
LINE
  5
224
100
AcDbEntity
  8
Calque_2
 62
7
100
AcDbLine
 10
85.763523
 20
174.615964
 30
0.0
 11
85.500519
 21
174.352960
 31
0.0
  0
SPLINE
  5
225
100
AcDbEntity
  8
Calque_2
 62
7
100
AcDbSpline
 70
0
 71
3
 72
13
 73
9
 74
7
 40
0.000000
 40
0.000000
 40
0.000000
 40
0.000000
 40
0.213092
 40
0.424421
 40
0.637513
 40
0.850605
 40
1.061934
 40
1.275026
 40
1.275026
 40
1.275026
 40
1.275026
 10
85.763523
 20
175.767173
 30
0.0
 10
85.810059
 20
175.712963
 30
0.0
 10
85.902746
 20
175.604991
 30
0.0
 10
85.982707
 20
175.404240
 30
0.0
 10
86.011607
 20
175.191568
 30
0.0
 10
85.982707
 20
174.978897
 30
0.0
 10
85.902746
 20
174.778146
 30
0.0
 10
85.810059
 20
174.670174
 30
0.0
 10
85.763523
 20
174.615964
 30
0.0
 11
85.763523
 21
175.767173
 31
0.0
 11
85.893186
 21
175.598070
 31
0.0
 11
85.974058
 21
175.402828
 31
0.0
 11
86.001947
 21
175.191568
 31
0.0
 11
85.974058
 21
174.980309
 31
0.0
 11
85.893186
 21
174.785067
 31
0.0
 11
85.763523
 21
174.615964
 31
0.0
  0
LINE
  5
226
100
AcDbEntity
  8
Calque_2
 62
7
100
AcDbLine
 10
84.349310
 20
174.352960
 30
0.0
 11
81.964985
 21
176.737284
 31
0.0
  0
SPLINE
  5
227
100
AcDbEntity
  8
Calque_2
 62
7
100
AcDbSpline
 70
0
 71
3
 72
10
 73
6
 74
4
 40
0.000000
 40
0.000000
 40
0.000000
 40
0.000000
 40
0.425622
 40
0.838620
 40
1.264242
 40
1.264242
 40
1.264242
 40
1.264242
 10
85.500519
 20
174.352960
 30
0.0
 10
85.383826
 20
174.267931
 30
0.0
 10
85.153902
 20
174.100395
 30
0.0
 10
84.695927
 20
174.100395
 30
0.0
 10
84.466003
 20
174.267931
 30
0.0
 10
84.349310
 20
174.352960
 30
0.0
 11
85.500519
 21
174.352960
 31
0.0
 11
85.131414
 21
174.141028
 31
0.0
 11
84.718415
 21
174.141028
 31
0.0
 11
84.349310
 21
174.352960
 31
0.0
  0
LINE
  5
228
100
AcDbEntity
  8
Calque_2
 62
7
100
AcDbLine
 10
81.964985
 20
177.888494
 30
0.0
 11
81.964985
 21
177.888494
 31
0.0
  0
LINE
  5
229
100
AcDbEntity
  8
Calque_2
 62
7
100
AcDbLine
 10
63.509996
 20
195.636377
 30
0.0
 11
64.480106
 21
196.606488
 31
0.0
  0
SPLINE
  5
22a
100
AcDbEntity
  8
Calque_2
 62
7
100
AcDbSpline
 70
0
 71
3
 72
13
 73
9
 74
7
 40
0.000000
 40
0.000000
 40
0.000000
 40
0.000000
 40
0.213092
 40
0.424421
 40
0.637513
 40
0.850605
 40
1.061934
 40
1.275026
 40
1.275026
 40
1.275026
 40
1.275026
 10
81.964985
 20
176.737284
 30
0.0
 10
81.918450
 20
176.791494
 30
0.0
 10
81.825763
 20
176.899466
 30
0.0
 10
81.745802
 20
177.100217
 30
0.0
 10
81.716902
 20
177.312889
 30
0.0
 10
81.745802
 20
177.525560
 30
0.0
 10
81.825763
 20
177.726312
 30
0.0
 10
81.918450
 20
177.834283
 30
0.0
 10
81.964985
 20
177.888494
 30
0.0
 11
81.964985
 21
176.737284
 31
0.0
 11
81.835323
 21
176.906387
 31
0.0
 11
81.754451
 21
177.101630
 31
0.0
 11
81.726562
 21
177.312889
 31
0.0
 11
81.754451
 21
177.524148
 31
0.0
 11
81.835323
 21
177.719390
 31
0.0
 11
81.964985
 21
177.888494
 31
0.0
  0
LINE
  5
22b
100
AcDbEntity
  8
Calque_2
 62
7
100
AcDbLine
 10
65.631316
 20
196.606488
 30
0.0
 11
68.015640
 21
194.222163
 31
0.0
  0
SPLINE
  5
22c
100
AcDbEntity
  8
Calque_2
 62
7
100
AcDbSpline
 70
0
 71
3
 72
10
 73
6
 74
4
 40
0.000000
 40
0.000000
 40
0.000000
 40
0.000000
 40
0.425622
 40
0.838620
 40
1.264242
 40
1.264242
 40
1.264242
 40
1.264242
 10
64.480106
 20
196.606488
 30
0.0
 10
64.596799
 20
196.691516
 30
0.0
 10
64.826724
 20
196.859052
 30
0.0
 10
65.284698
 20
196.859052
 30
0.0
 10
65.514623
 20
196.691516
 30
0.0
 10
65.631316
 20
196.606488
 30
0.0
 11
64.480106
 21
196.606488
 31
0.0
 11
64.849212
 21
196.818419
 31
0.0
 11
65.262210
 21
196.818419
 31
0.0
 11
65.631316
 21
196.606488
 31
0.0
  0
LINE
  5
22d
100
AcDbEntity
  8
Calque_2
 62
7
100
AcDbLine
 10
68.015640
 20
193.070954
 30
0.0
 11
67.045530
 21
192.100843
 31
0.0
  0
SPLINE
  5
22e
100
AcDbEntity
  8
Calque_2
 62
7
100
AcDbSpline
 70
0
 71
3
 72
10
 73
6
 74
4
 40
0.000000
 40
0.000000
 40
0.000000
 40
0.000000
 40
0.425622
 40
0.838620
 40
1.264242
 40
1.264242
 40
1.264242
 40
1.264242
 10
68.015640
 20
194.222163
 30
0.0
 10
68.100669
 20
194.105470
 30
0.0
 10
68.268204
 20
193.875545
 30
0.0
 10
68.268204
 20
193.417571
 30
0.0
 10
68.100669
 20
193.187647
 30
0.0
 10
68.015640
 20
193.070954
 30
0.0
 11
68.015640
 21
194.222163
 31
0.0
 11
68.227572
 21
193.853058
 31
0.0
 11
68.227572
 21
193.440059
 31
0.0
 11
68.015640
 21
193.070954
 31
0.0
  0
LINE
  5
22f
100
AcDbEntity
  8
Calque_2
 62
7
100
AcDbLine
 10
65.894320
 20
192.100843
 30
0.0
 11
63.509996
 21
194.485167
 31
0.0
  0
SPLINE
  5
230
100
AcDbEntity
  8
Calque_2
 62
7
100
AcDbSpline
 70
0
 71
3
 72
13
 73
9
 74
7
 40
0.000000
 40
0.000000
 40
0.000000
 40
0.000000
 40
0.213092
 40
0.424421
 40
0.637513
 40
0.850605
 40
1.061934
 40
1.275026
 40
1.275026
 40
1.275026
 40
1.275026
 10
67.045530
 20
192.100843
 30
0.0
 10
66.991319
 20
192.054307
 30
0.0
 10
66.883348
 20
191.961620
 30
0.0
 10
66.682596
 20
191.881660
 30
0.0
 10
66.469925
 20
191.852760
 30
0.0
 10
66.257253
 20
191.881660
 30
0.0
 10
66.056502
 20
191.961620
 30
0.0
 10
65.948530
 20
192.054307
 30
0.0
 10
65.894320
 20
192.100843
 30
0.0
 11
67.045530
 21
192.100843
 31
0.0
 11
66.876426
 21
191.971181
 31
0.0
 11
66.681184
 21
191.890309
 31
0.0
 11
66.469925
 21
191.862420
 31
0.0
 11
66.258665
 21
191.890309
 31
0.0
 11
66.063423
 21
191.971181
 31
0.0
 11
65.894320
 21
192.100843
 31
0.0
  0
LINE
  5
231
100
AcDbEntity
  8
Calque_2
 62
7
100
AcDbLine
 10
63.509996
 20
195.636377
 30
0.0
 11
63.509996
 21
195.636377
 31
0.0
  0
LINE
  5
232
100
AcDbEntity
  8
Calque_2
 62
7
100
AcDbLine
 10
44.598553
 20
213.840713
 30
0.0
 11
46.275770
 21
215.517930
 31
0.0
  0
SPLINE
  5
233
100
AcDbEntity
  8
Calque_2
 62
7
100
AcDbSpline
 70
0
 71
3
 72
13
 73
9
 74
7
 40
0.000000
 40
0.000000
 40
0.000000
 40
0.000000
 40
0.213092
 40
0.424421
 40
0.637513
 40
0.850605
 40
1.061934
 40
1.275026
 40
1.275026
 40
1.275026
 40
1.275026
 10
63.509996
 20
194.485167
 30
0.0
 10
63.463460
 20
194.539377
 30
0.0
 10
63.370773
 20
194.647349
 30
0.0
 10
63.290812
 20
194.848101
 30
0.0
 10
63.261912
 20
195.060772
 30
0.0
 10
63.290812
 20
195.273443
 30
0.0
 10
63.370773
 20
195.474195
 30
0.0
 10
63.463460
 20
195.582167
 30
0.0
 10
63.509996
 20
195.636377
 30
0.0
 11
63.509996
 21
194.485167
 31
0.0
 11
63.380333
 21
194.654271
 31
0.0
 11
63.299461
 21
194.849513
 31
0.0
 11
63.271572
 21
195.060772
 31
0.0
 11
63.299461
 21
195.272031
 31
0.0
 11
63.380333
 21
195.467273
 31
0.0
 11
63.509996
 21
195.636377
 31
0.0
  0
LINE
  5
234
100
AcDbEntity
  8
Calque_2
 62
7
100
AcDbLine
 10
47.426980
 20
215.517930
 30
0.0
 11
49.811304
 21
213.133606
 31
0.0
  0
SPLINE
  5
235
100
AcDbEntity
  8
Calque_2
 62
7
100
AcDbSpline
 70
0
 71
3
 72
13
 73
9
 74
7
 40
0.000000
 40
0.000000
 40
0.000000
 40
0.000000
 40
0.213092
 40
0.424421
 40
0.637513
 40
0.850605
 40
1.061934
 40
1.275026
 40
1.275026
 40
1.275026
 40
1.275026
 10
46.275770
 20
215.517930
 30
0.0
 10
46.329980
 20
215.564466
 30
0.0
 10
46.437952
 20
215.657153
 30
0.0
 10
46.638704
 20
215.737114
 30
0.0
 10
46.851375
 20
215.766014
 30
0.0
 10
47.064046
 20
215.737114
 30
0.0
 10
47.264798
 20
215.657153
 30
0.0
 10
47.372770
 20
215.564466
 30
0.0
 10
47.426980
 20
215.517930
 30
0.0
 11
46.275770
 21
215.517930
 31
0.0
 11
46.444874
 21
215.647593
 31
0.0
 11
46.640116
 21
215.728465
 31
0.0
 11
46.851375
 21
215.756354
 31
0.0
 11
47.062634
 21
215.728465
 31
0.0
 11
47.257877
 21
215.647593
 31
0.0
 11
47.426980
 21
215.517930
 31
0.0
  0
LINE
  5
236
100
AcDbEntity
  8
Calque_2
 62
7
100
AcDbLine
 10
49.811304
 20
211.982396
 30
0.0
 11
48.134087
 21
210.305179
 31
0.0
  0
SPLINE
  5
237
100
AcDbEntity
  8
Calque_2
 62
7
100
AcDbSpline
 70
0
 71
3
 72
13
 73
9
 74
7
 40
0.000000
 40
0.000000
 40
0.000000
 40
0.000000
 40
0.213092
 40
0.424421
 40
0.637513
 40
0.850605
 40
1.061934
 40
1.275026
 40
1.275026
 40
1.275026
 40
1.275026
 10
49.811304
 20
213.133606
 30
0.0
 10
49.857840
 20
213.079396
 30
0.0
 10
49.950527
 20
212.971424
 30
0.0
 10
50.030487
 20
212.770673
 30
0.0
 10
50.059387
 20
212.558001
 30
0.0
 10
50.030487
 20
212.345330
 30
0.0
 10
49.950527
 20
212.144578
 30
0.0
 10
49.857840
 20
212.036607
 30
0.0
 10
49.811304
 20
211.982396
 30
0.0
 11
49.811304
 21
213.133606
 31
0.0
 11
49.940966
 21
212.964503
 31
0.0
 11
50.021838
 21
212.769260
 31
0.0
 11
50.049727
 21
212.558001
 31
0.0
 11
50.021838
 21
212.346742
 31
0.0
 11
49.940966
 21
212.151500
 31
0.0
 11
49.811304
 21
211.982396
 31
0.0
  0
LINE
  5
238
100
AcDbEntity
  8
Calque_2
 62
7
100
AcDbLine
 10
46.982877
 20
210.305179
 30
0.0
 11
44.598553
 21
212.689503
 31
0.0
  0
SPLINE
  5
239
100
AcDbEntity
  8
Calque_2
 62
7
100
AcDbSpline
 70
0
 71
3
 72
10
 73
6
 74
4
 40
0.000000
 40
0.000000
 40
0.000000
 40
0.000000
 40
0.425622
 40
0.838620
 40
1.264242
 40
1.264242
 40
1.264242
 40
1.264242
 10
48.134087
 20
210.305179
 30
0.0
 10
48.017394
 20
210.220150
 30
0.0
 10
47.787469
 20
210.052615
 30
0.0
 10
47.329495
 20
210.052615
 30
0.0
 10
47.099570
 20
210.220150
 30
0.0
 10
46.982877
 20
210.305179
 30
0.0
 11
48.134087
 21
210.305179
 31
0.0
 11
47.764981
 21
210.093247
 31
0.0
 11
47.351983
 21
210.093247
 31
0.0
 11
46.982877
 21
210.305179
 31
0.0
  0
LINE
  5
23a
100
AcDbEntity
  8
Calque_2
 62
7
100
AcDbLine
 10
44.598553
 20
213.840713
 30
0.0
 11
44.598553
 21
213.840713
 31
0.0
  0
SPLINE
  5
23b
100
AcDbEntity
  8
Calque_2
 62
7
100
AcDbSpline
 70
0
 71
3
 72
13
 73
9
 74
7
 40
0.000000
 40
0.000000
 40
0.000000
 40
0.000000
 40
0.213092
 40
0.424421
 40
0.637513
 40
0.850605
 40
1.061934
 40
1.275026
 40
1.275026
 40
1.275026
 40
1.275026
 10
44.598553
 20
212.689503
 30
0.0
 10
44.552017
 20
212.743713
 30
0.0
 10
44.459330
 20
212.851685
 30
0.0
 10
44.379369
 20
213.052437
 30
0.0
 10
44.350469
 20
213.265108
 30
0.0
 10
44.379369
 20
213.477779
 30
0.0
 10
44.459330
 20
213.678531
 30
0.0
 10
44.552017
 20
213.786503
 30
0.0
 10
44.598553
 20
213.840713
 30
0.0
 11
44.598553
 21
212.689503
 31
0.0
 11
44.468890
 21
212.858607
 31
0.0
 11
44.388018
 21
213.053849
 31
0.0
 11
44.360129
 21
213.265108
 31
0.0
 11
44.388018
 21
213.476367
 31
0.0
 11
44.468890
 21
213.671610
 31
0.0
 11
44.598553
 21
213.840713
 31
0.0
  0
ENDSEC
  0
SECTION
  2
OBJECTS
  0
DICTIONARY
  5
C
330
0
100
AcDbDictionary
  3
ACAD_GROUP
350
D
  3
ACAD_MLINESTYLE
350
17
  0
DICTIONARY
  5
D
330
C
100
AcDbDictionary
  0
DICTIONARY
  5
1A
330
C
100
AcDbDictionary
  0
DICTIONARY
  5
17
330
C
100
AcDbDictionary
  3
STANDARD
350
18
  0
DICTIONARY
  5
19
330
C
100
AcDbDictionary
  0
ENDSEC
  0
EOF
